PrimaNota.ru - самый крупный в мире бесплатный архив песенных текстов, аккордов, табулатур и нот


4 Taste - Mas Talvez - таба, видео

Регистрация Запомнить меня
Войти через:  Facebook Google Twitter Vk Yandex Mail.ru

4 Taste - Mas Talvez - таба, видео

Печатать
Просмотров: 196
Bem aqui as tabs para a musica inteira com os solos:

www.4taste4ever.cjb.net

By Elvis Gomes (4taste4ever)

Intro:

E-0-5-0-7--9-|                             E-0-5-0-7--9-5-|
B------------|                             B--------------|
G------------| 12x   na ultima vez fazem:  G--------------|
D------------|                             D--------------|
A------------|                             A--------------|
E------------|                             E--------------|

Part:

E---------------------------|
B---------------------------|
G-----7------------------7--|
D-----7--------3---------7--|
A-5-5-5--------3-----5-5-5--|
E----------0-0-0------------|

Pre refrão:

E-----------------------------------------------------------------|
B-----------------------------------------------------------------|
G-----------------------------------------------------------------|
D-3-3-3-3-3-3-3-3-3-3-3-3-3-3-3-3-7-7-7-7-7-7-7-7-7-7-7-7-7-7-7-7-|
A-3-3-3-3-3-3-3-3-3-3-3-3-3-3-3-3-5-5-5-5-5-5-5-5-5-5-5-5-5-5-5-5-|
E-----------------------------------------------------------------|

---------------------------------------------------------|
---------------------------------------------------------|
-------------------------------------------------------7-|
-3-3-3-3-3-3-3-3-3-3-3-3-3-3-3-3-7-7-7-7-7-7-7-7-7-7-7-7-|
-3-3-3-3-3-3-3-3-3-3-3-3-3-3-3-3-5-5-5-5-5-5-5-5-5-5-5-5-|
---------------------------------------------------------|

4x Refrão:

E----------------------------------------------------------------------|
B----------------------------------------------------------------------|
G--------------------6-6-6-6-6-6-6-6-------------------7-7-7-7-7-7-7-7-|
D-7-7-7-7-7-7-7-7-7--6-6-6-6-6-6-6-6--4-4-4-4-4-4-4-4--7-7-7-7-7-7-7-7-|
A-7-7-7-7-7-7-7-7-7--4-4-4-4-4-4-4-4--4-4-4-4-4-4-4-4--5-5-5-5-5-5-5-5-|
E-5-5-5-5-5-5-5-5-5-------------------2-2-2-2-2-2-2-2------------------|

Depois:

7x Intro com a fim especial que esta em cima
1x Part
1x Pre refrão
Refrão

Depois o solo:

E--------------------------------------------------------------|
B--------------------------------------------------------------|
G--------------------------------------------------------------|
D-----------9-10-10-10-9-----------------------9-10-10-10-9----|
A-12---12-12-------------12-10-10-12-12--12-12--------------12-|
E--------------------------------------------------------------|

-------------------------------------------------|
-------------------------------------------------|
--11-9----9--11-9----9-11--14-14-13-14-13----11--|
-------12---------12----------------------14-----|
-------------------------------------------------|
-------------------------------------------------|

rapido
---------------------------------------------------|
--------10--------10--------10--------10---14-12---|
-9-(11)----9-(11)----9-(11)----9-(11)--------------|
---------------------------------------------------|
---------------------------------------------------|
---------------------------------------------------|

----------------------------------------------12----|
--------10--------10--------10--------10---14----12-|
-9-(11)----9-(11)----9-(11)----9-(11)---------------|
----------------------------------------------------|
----------------------------------------------------|
----------------------------------------------------|

---------------------------------------------------------------|
--------10--------10--------10--------10--14-12----------------|
-9-(11)----9-(11)----9-(11)----9-(11)-----------14-13-14-13----|
------------------------------------------------------------14-|
---------------------------------------------------------------|
---------------------------------------------------------------|

------------------------------|
------------------------------|
----------11--11--------------|
-14-14-11--------14-11--------|
-----------------------14-12--|
------------------------------|

depois ainda

6x Refrão

E ja ta!!!

Ja sabes tocar uma musica brutal dos 4Taste!!!!
Tu agora la tens que ouvir a volcidade que tens que tocar ;)

Boa sorte

www.4taste4ever.cjb.net
Добавлено: 12.04.2012
Другие материалы по этой песне:
  • Аккорды и текст

Страница создана 12.04.2012
http://primanota.ru/4-taste/mas-talvez-chords.htm
Привет, Гость.
Предлагаем пройти революционный курс по гитаре.
Подарок от PrimaNota.Ru, забирай!