PrimaNota.ru - самый крупный в мире бесплатный архив песенных текстов, аккордов, табулатур и нот


The 4-Skins - One Law For Them - бас-таба, видео

Регистрация Запомнить меня
Войти через:  Facebook Google Twitter Vk Yandex Mail.ru

The 4-Skins - One Law For Them - бас-таба, видео

Печатать
Просмотров: 173
Уроки эстрадного вокала в Санкт-Петербурге
from album "The Best Of The 4 Skins"

~ let ring

A:
    G|----------------------------------2222-54--|
    D|-2222-4-5-4------------2222-5-5-5--------5-|
    A|------------3333-5-3-2---------------------|
    E|-------------------------------------------|
B:
    G|-----------------------------------2222-2-2-2--|
    D|-2222-5-5-5-------------2222-5-5-5-------------|
    A|-------------3333-5-3-2------------------------|
    E|-----------------------------------------------|
C:
    G|----------------------------------2222-54--|
    D|-2222-5-5-5------------2222-5-5-5--------5-|
    A|------------3333-5-3-2---------------------|
    E|-------------------------------------------|
Chorus:
    G|-------21--------------------------------------|
    D|-2-2-2---2---0-0-0-545-------32----------------|
    A|-------------------------333---3---0-0-0-540---|
    E|-----------------------------------------------|
E:
    G|---------------------------------------------|
    D|-2~ ---------5~ -----------------------------|
    A|-------------------------3~ -------5~ -------|
    E|---------------------------------------------|
F:
    G|----------------------------------------------|
    D|-2222-2-2-2-5555-5-5-5------------------------|
    A|-----------------------3333-3-3-3-5555-5-5-5--|
    E|----------------------------------------------|
G:
    G|------1-2-1------4-5-4------------------------|
    D|-2222-------5555------------2-3-2------4-5-4--|
    A|-----------------------3333-------5555--------|
    E|----------------------------------------------|
H:
    G|------------------------------------------|
    D|-2-2-2-222-5-5-5-555----------------------|
    A|---------------------3-3-3-333-5-5-5-555--|
    E|------------------------------------------|
I:
    G|-------121-------454----------------------|
    D|-2-2-2-----5-5-5-----------232-------454--|
    A|---------------------3-3-3-----5-5-5------|
    E|------------------------------------------|
J:
    G|-------121-------454---------------------------|
    D|-2-2-2-----5-5-5-----------232-------4542---2--|
    A|---------------------3-3-3-----5-5-5-----------|
    E|-----------------------------------------------|

1 x A
1 x B
1 x C
1 x B
2 x Chorus
1 x E
1 x C
2 x Chorus
1 x E
2 x F
2 x G
2 x Chorus
1 x E
1 x H
4 x I
1 x J
Добавлено: 29.02.2016
Другие материалы по этой песне:
  • Аккорды и текст

Страница создана 29.02.2016
http://primanota.ru/4-skins-2/one-law-for-them-chords.htm
Привет, Гость.
Предлагаем пройти революционный курс по гитаре.
Подарок от PrimaNota.Ru, забирай!