PrimaNota.ru - самый крупный в мире бесплатный архив песенных текстов, аккордов, табулатур и нот


The 4-Skins - On The Streets - бас-таба, видео

Регистрация Запомнить меня
Войти через:  Facebook Google Twitter Vk Yandex Mail.ru

The 4-Skins - On The Streets - бас-таба, видео

Печатать
Просмотров: 121
Уроки эстрадного вокала в Санкт-Петербурге
Song: On The Streets
Artist: 4 Skins, The
Album: Son Of Oi!
Genre: Oi!
Year: 1983

Hey guys! This is the bass tab of the song and I think 95% correct.
Anyway, enjoy the 4 Skins!

Intro:

G:---------
D:---------
A:---------
E:---000---

Pre-Verse:

G:-------------------------
D:-------------------------
A:-------------5-5-3-333---
E:---0-00-3-33-------------

Verse:

G:-------------------------   -------------------------   -------------------------
D:-------------------------   --------5-55-------------   -------------------------
A:-------------5-5-3-333---   ---7-77------5-5-3-333---   -------------5-5-3-333---
E:---0-00-3-33-------------x4 -------------------------x2 ---0-00-3-33-------------x4

Pre-Chorus:

G:--------------------------------------
D:--------------------------------------
A:---22222222222222222222222222222222---
E:--------------------------------------

Chorus:

G:--------------------------------------------------------------------------------------------
D:--------------------------------------------------------------------------------------------
A:---2-----------------2-2----------------5----3----7-777777-5-5--3-3--7-777777-2-------------
E:--------3---0-030003------333-0-0300030--------------------------------------------3---0*---

*Play 'til you need

Verse 2:

G:-------------------------
D:--------5-55-------------
A:---7-77------5-5-3-333---
E:-------------------------

The order is:
.Intro x3
.Pre-Verse x2
.Verse 1 x1
.Pre-Chorus x1
.Chorus x1
.Pre-Verse x2
.Verse 1 x1
.Pre-Chorus x1
.Chorus x1
.Pre-Verse x2
.Verse 2 x4
.Pre-Chorus x1
.Chorus x1





Tab by: mdc_ivan











Добавлено: 29.02.2016
Другие материалы по этой песне:
  • Аккорды и текст

Страница создана 29.02.2016
http://primanota.ru/4-skins-2/on-streets-chords.htm
Привет, Гость.
Предлагаем пройти революционный курс по гитаре.
Подарок от PrimaNota.Ru, забирай!