PrimaNota.ru - самый крупный в мире бесплатный архив песенных текстов, аккордов, табулатур и нот


The 4-Skins - Manifesto - бас-таба, видео

Регистрация Запомнить меня
Войти через:  Facebook Google Twitter Vk Yandex Mail.ru

The 4-Skins - Manifesto - бас-таба, видео

Печатать
Просмотров: 165
Уроки эстрадного вокала в Санкт-Петербурге
Song: Manifesto
Artist: 4 Skins, The
Album: The Good, The Bad And The 4 Skins
Genre: Oi!
Year: 1982

Hey guys! This is the bass tab of the song and I think it's 90/95% correct.
Anyway, enjoy the 4 Skins!

Verse:

G:------------------------------------------------
D:--------------222-333-22------------222-333-5---
A:-------333-55----------------333-55-------------
E:---555-------------------555--------------------


Pre-Chorus:

G:---------------------------------------
D:---5-555555-3-333333-2-222222----4-5---
A:------------------------------55-------
E:---------------------------------------

Chorus:

G:-----------------------------------------------
D:----------------------------------------5------
A:-------333-5-----333-5--777-------777-5--------
E:---555-------555------------888-5--------------

End:

G:------------
D:------------
A:------------
E:---5----5---

The order is:
.Verse x6
.Pre-Chorus x2
.Chorus x1
.Verse x3
.Pre-Chorus x2
.Chorus x1
.Verse x4
.Pre-Chorus x2
.Chorus x1
.Verse x3
.End x1




Tab by: mdc_ivan


Добавлено: 29.02.2016
Другие материалы по этой песне:
  • Аккорды и текст

Страница создана 29.02.2016
http://primanota.ru/4-skins-2/manifesto-chords.htm
Привет, Гость.
Предлагаем пройти революционный курс по гитаре.
Подарок от PrimaNota.Ru, забирай!