PrimaNota.ru - самый крупный в мире бесплатный архив песенных текстов, аккордов, табулатур и нот


The 4-Skins - I Dont Care - аккорды и текст, видео

Регистрация Запомнить меня
Войти через:  Facebook Google Twitter Vk Yandex Mail.ru

The 4-Skins - I Dont Care - аккорды и текст, видео

Печатать
Просмотров: 102
I Dont Care
The 4-Skins
I Don't Care by The 4 Skins

Stumbled on this intro by accident!

Probably the best guitar riff the 4 Skins recorded...you will have to listen to the song 
for the timing...

e-----------------------------------------------------------------------------------|
B-----------------------------------------------------------------------------------|
G-----------------------------------------------------------------------------------|
D---7-7-7-7-7-7-7-7--|--6-6-6-6-6-6-6-6--|--5-5-5-5-5-5-5-5--|--4-------------------|
A---5-5-5-5-5-5-5-5--|--5-5-5-5-5-5-5-5--|--5-5-5-5-5-5-5-5--|--5---0--3--0--3h-----|
E-----------------------------------------------------------------------------------|


That's the intro and main verse riff.

The bass break is like this...

G-------------------------------------------------------------------------------------|
D---7-0-0-7-0-0-7-0--|---6-0-0-6-0-0-6-0--|---5-0-0-5-0-0-5-0--|---4-0-0--------------|
A--------------------------------------------------------------|---------0--3--0--3h--|
E-------------------------------------------------------------------------------------|
Добавлено: 29.02.2016
Другие материалы по этой песне:
  • Аккорды и текст

Страница создана 29.02.2016
http://primanota.ru/4-skins-2/i-dont-care-chords.htm
Привет, Гость.
Предлагаем пройти революционный курс по гитаре.
Подарок от PrimaNota.Ru, забирай!