PrimaNota.ru - самый крупный в мире бесплатный архив песенных текстов, аккордов, табулатур и нот


The 4-Skins - 5 More Years - бас-таба, видео

Регистрация Запомнить меня
Войти через:  Facebook Google Twitter Vk Yandex Mail.ru

The 4-Skins - 5 More Years - бас-таба, видео

Печатать
Просмотров: 65
Song: 5 More Years (Layabouts Anthem)
Artist: 4 Skins, The
Album: A Fistful Of... 4 Skins
Genre: Oi!
Year: 1983

Hey guys! This is the bass tab of the song and I think it's 100% correct, even if I've got just
one doubt about the chorus.
Anyway, enjoy the 4 Skins!

Intro/Bridge:

G:------------------------   ------------------------
D:------------------------   ------------5-5-7-7-5---
A:------------------------   ---7-777777-------------
E:---0--------3-3-5-5-3---x4 ------------------------x4

Verse 1:

G:---------------------------   ---------------------------
D:---------------5-5-7-7-5---   ---------------5-5-7-7-5---
A:---77-55-------------------   ---77-55-99-77-------------
E:---------88-77-------------x3 ---------------------------x1

Chorus:

G:-------------------------   ----------------------------------------
D:-------------------------   -----------------------6---6---6---6----
A:---------------------7---   -----4---4----6---6--77-777-777-777-7---
E:---5--------7------------x1 ---55-555-5-77-777-7--------------------x2

Pre-Verse:

G:------------------------
D:------------5-5-7-7-5---
A:---7-777777-------------
E:------------------------

Verse 2:

G:------------------------   ---------------------------
D:------------5-5-7-7-5---   ---------------5-5-7-7-5---
A:---7-777777-------------   ---77-55-99-77-------------
E:------------------------x5 ---------------------------x1

End:

G:------------------------   ------------------------   ---------------
D:------------------------   ------------5-5-7-7-5---   ---5-5-7-7-5---
A:------------------------   ---7-777777-------------   ---------------
E:---0--------3-3-5-5-3---x4 ------------------------x8 ---------------x2

then there is the last riff by the guitar, but if you want to play it, it's this:

G:-------------------
D:-------------------
A:---77-77-77-77-7---
E:-------------------x1

The order is:
.Intro x1
.Verse 1 x1
.Chorus x1
.Pre-Verse x4
.Verse 1 x1
.Chorus x1
.Bridge x1
.Verse 1 x1
.Verse 2 x1
.Chorus x1
.End x1






Tab by: mdc_ivan













Добавлено: 29.02.2016
Другие материалы по этой песне:
  • Аккорды и текст

Страница создана 29.02.2016
http://primanota.ru/4-skins-2/5-more-years-chords.htm
Привет, Гость.
Предлагаем пройти революционный курс по гитаре.
Подарок от PrimaNota.Ru, забирай!