PrimaNota.ru - самый крупный в мире бесплатный архив песенных текстов, аккордов, табулатур и нот


The 4-Skins - 1984 - бас-таба, видео

Регистрация Запомнить меня
Войти через:  Facebook Google Twitter Vk Yandex Mail.ru

The 4-Skins - 1984 - бас-таба, видео

Печатать
Просмотров: 45
Song: 1984
Artist: 4 Skins, The
Album: The Best Of The 4 Skins
Genre: Oi!
Year: 1991

Hey guys! This is the bass tab of the song and I think it is 95/100% correct.
Anyway, enjoy the 4 Skins!

Pre-Verse/Pre-Chorus:

G:---------------------------------------
D:---------------------------------------
A:------------77-55-4----------55-33-2---
E:---5-555555---------3-333333-----------

Verse:

G:----------------------------------------
D:---------------55----------------33-----
A:------------77----7-----------55----5---
E:---5-555555----------3-333333-----------

Chorus:

G:-----------------------------------------------------------------
D:-----------------------------------------------------------------
A:-----------------------------------------------------------------
E:---1-11111-3-333333-1-11111-5-555555-1-111111111-2-3-333333333---

Bridge:

G:------------------------------------
D:------------------------------------
A:------------------------------------
E:---5-55-3-33-0-0-3-33-5-55-3-33-0---

End:

G:-------
D:-------
A:-------
E:---5---

The order is:
.Pre-Verse x2
.Verse x2
.Pre-Chorus x1
.Chorus 1
.Pre Verse x1
.Verse x2
.Pre-Chorus x1
.Chorus x1
.Bridge x2
.Pre-Verse x1
.Verse x2
.Pre-Chorus x1
.Chorus x1
.End x1




Tab by: mdc_ivan


Добавлено: 29.02.2016
Другие материалы по этой песне:
  • Аккорды и текст

Страница создана 29.02.2016
http://primanota.ru/4-skins-2/1984-chords.htm
Привет, Гость.
Предлагаем пройти революционный курс по гитаре.
Подарок от PrimaNota.Ru, забирай!