PrimaNota.ru - самый крупный в мире бесплатный архив песенных текстов, аккордов, табулатур и нот


36 Crazyfists - When Distance Is The Closest Reminder - таба, видео

Регистрация Запомнить меня
Войти через:  Facebook Google Twitter Vk Yandex Mail.ru

36 Crazyfists - When Distance Is The Closest Reminder - таба, видео

Печатать
Просмотров: 197
Уроки эстрадного вокала в Санкт-Петербурге
check out the full version.

TUNING: DROP C

|------------------------------------------------------------|
|------------------------------------------------------------|
|-5----2-4------5----2-4---2-4----------4----------4---4-2---|
|----------5-------------5----------5-------5--------------5-|
|----0-------0-----0-----------3--------------2--------------|
|------------------------------3--3---3---3---2--2---2-------|
     .       .     .              .   .   .      .   .

|------------------------------------------------------------|
|------------------------------------------------------------|
|-5----2-4------5----2-4---2-4----------4----------4---------|
|----------5-------------5----------5-------5----------------|
|----0-------0-----0-----------3--------------2--------------|
|------------------------------3--3---3---3---2--2-----------|
|    .       .     .              .   .   .      .           |
|------------------------------------------------------------|
|------------------------------------------------------------|
|-14-1414141414-16-16161616161615-1515151515--12-1212--------|
|-X--X-X-X-X-X--X--X-X-X-X-X-X-X--X-X-X-X-X---X--X-X---------|
|-12-1212121212-14-14141414141413-1313131313--10-1010--------|
|------------------------------------------------------------|

Добавлено: 31.05.2012
Другие материалы по этой песне:

Страница создана 11.03.2012
http://primanota.ru/36-crazyfists/when-distance-is-the-closest-reminder-chords.htm
Привет, Гость.
Предлагаем пройти революционный курс по гитаре.
Подарок от PrimaNota.Ru, забирай!