PrimaNota.ru - самый крупный в мире бесплатный архив песенных текстов, аккордов, табулатур и нот


36 Crazyfists - Skin And Atmosphere - текст песни, таба, видео

Регистрация Запомнить меня
Войти через:  Facebook Google Twitter Vk Yandex Mail.ru

36 Crazyfists - Skin And Atmosphere - текст песни, таба, видео

Печатать
Просмотров: 263
Уроки эстрадного вокала в Санкт-Петербурге
 Song: Skin and Atmosphere
 Artist: 36 Crazyfists
 Album: A Snow Capped Romance
 Guitarist: Steve Holt
 Transcribed by: Ryan
 Email: Falling_away_from_nothing@hotmail.com
 Submiited By: Stand Alone (projectwyze13@hotmail.com)

 Tuning: CGCFAD

 . - Palm mute
 * - harmonic
 p.h - Pinch harmonic
 x - Muted string
 ~ - Let note ring

Verse/Intro
|-----------------------------------|
|-----------------------------------|  
|-55555555-777-44444444-000-7777----|  
|-77777777-999-55555555-555-5555----| 
|-----------------------------------|
|-----------------------------------|

|---------|
|---7*----|
|-5*------|
|---------| (intro only then into chorus)
|---------|
|---------|

Verse pt2
|------------|
|------------|
|-55555555---|
|-77777777---|
|-00000000---|
|------------|

 After this is a weird bit i havent worked out yet then he bends this note
|--------|
|--------|
|--------|
|--2^----|
|--------|
|--------|

Chorus

|------------------------------------------------------|
|------------------------------------------------------|
|----555-444-555-444-55--------------------------------|  
|-33-333-333-333-333-33--77-101010--999-101010-9999-10-|  
|-33-333-333-333-333-33--77--7-7-7--777--7-7-7-7777--7-|
|-33-333-333-333-333-33--77--7-7-7--777--7-7-7-7777--7-|

|-------------------------------------------|
|-------------------------------------------|
|----555-444-555-444-55-101010----555-444-5-|
|-33-333-333-333-333-33--7-7-7-22-222-222-2-|
|-33-333-333-333-333-33--7-7-7-22-222-222-2-|
|-33-333-333-333-333-33--7-7-7-22-222-222-2-|

Chorus pt2

|--------------------------------------------|
|--------------------------------------------|
|-9-10-7--9-14-9--14--9-10-12--17-16-14--12--|
|-x--x-x--x--x-x---x--x--x--x---x--x--x---x--|
|-7--8-5--7-12-7--12--7--8-10--15-14-12--10--|
|--------------------------------------------|

Bit after chorus pt2

|-------------|
|-------------|
|-2-5~--4-2-4-|
|-------------|
|-------------|
|-------------|

Bridge

|----------------|
|----------------|
|-5-4-2----5-4-2-|  Palm Mute this clean then in distortion, then release
|-------33-------|  the Palm Mute as if they were pinch harmonics 
|----------------|
|----------------|

there is another small riff after this which (again) i havent worked out yet then into
this

|---------------------------------------------|
|---------------------------------------------|
|-------------5-4-2p.h-------------5-4-2------|
|-222-2-2222------------222-2-2222-------3p.h-|
|-222-2-2222------------222-2-2222------------|
|-222-2-2222------------222-2-2222------------|
PM            . .                  . . .

Then this, then back into chorus straight after
|------------------------|
|------------------------|
|------5~--4-------------|
|-0-3--x---x--7777777--2-|
|-0-3--3~--2--7777777--2-|
|-0-3---------7777777--2-|
PM            .......

After chorus its this again:

|--------------------------------------------|
|--------------------------------------------|
|-9-10-7--9-14-9--14--9-10-12--17-16-14--12--|
|-x--x-x--x--x-x---x--x--x--x---x--x--x---x--|
|-7--8-5--7-12-7--12--7--8-10--15-14-12--10--|
|--------------------------------------------|

then changes slightly to this:

|---------------------------------------------------|
|---------------------------------------------------|
|-9-10-7--9-14-9--14--9-10-12--1717--1616-1414-1212-|
|-x--x-x--x--x-x---x--x--x--x---x-x---x-x--x-x--x-x-|
|-7--8-5--7-12-7--12--7--8-10--1515--1414-1212-1010-|
|---------------------------------------------------|

End the song with this played in clean:

|--0~--|
|--0~--|
|--5~--|
|--7~--|
|------|
|------|
Добавлено: 19.07.2012
Другие материалы по этой песне:
  • Аккорды и текст

Страница создана 05.03.2012
http://primanota.ru/36-crazyfists/skin-and-atmosphere-chords.htm
Привет, Гость.
Предлагаем пройти революционный курс по гитаре.
Подарок от PrimaNota.Ru, забирай!