PrimaNota.ru - самый крупный в мире бесплатный архив песенных текстов, аккордов, табулатур и нот


33 West - Waste My Time - таба, видео

Регистрация Запомнить меня
Войти через:  Facebook Google Twitter Vk Yandex Mail.ru

33 West - Waste My Time - таба, видео

Печатать
Просмотров: 53
-------------------------------------------------------------------------------
                             Waste My Time - 33 West
-------------------------------------------------------------------------------
Tabbed by: benlands3
E-mail: benlands3@gmail.com

Tuning: standard

I plan to post more of this soon.

Intro
e|--------------------------------------------------------------------------------|--------|
B|-------5/7--7-7--5-5-------5/7--7-7--5-5-------5/7--7-7--5-5--------------------|-5~-----|
G|--------------------------------------------------------------------------------|--------|
D|--2-2--2/4--4-4--2-2--6-6--2/4--4-4--2-2--2-2--2/4--4-4--2-2--7-7-7-7-7-7-7-7-7-|-2~-----|
A|--2-2-----------------6-6-----------------2-2-----------------7-7-7-7-7-7-7-7-7-|--------|
E|--0-0-----------------4-4-----------------0-0-----------------5-5-5-5-5-5-5-5-5-|--------|



************************************

| /   slide up
| \   slide down
| h   hammer-on
| p   pull-off
| ~   vibrato
| +   harmonic
| x   Mute note
| b   Bend
| pb  Pre-bend
| br  Bend release
| pbr Pre-bend release
| brb Bend release bend

************************************
Добавлено: 07.05.2016
Другие материалы по этой песне:
  • Аккорды и текст

Страница создана 07.05.2016
http://primanota.ru/33-west/waste-my-time-chords.htm
Привет, Гость.
Предлагаем пройти революционный курс по гитаре.
Подарок от PrimaNota.Ru, забирай!