PrimaNota.ru - самый крупный в мире бесплатный архив песенных текстов, аккордов, табулатур и нот


33 West - Smoke In Seat Four - таба, видео

Регистрация Запомнить меня
Войти через:  Facebook Google Twitter Vk Yandex Mail.ru

33 West - Smoke In Seat Four - таба, видео

Печатать
Просмотров: 90
-------------------------------------------------------------------------------
                             Smoke in Seat Four - 33 West
-------------------------------------------------------------------------------
Tabbed by: Benlands3
E-mail:

Tuning: D A D G B e (drop D)

Intro (play 5 times) guitar 1
e|--------------------------------------------------------------------------------------------------------|
B|--------------------------------------------------------------------------------------------------------|
G|--------------------------------------------------------------------------------------------------------|
D|---------------------------4------5------4----2--------------------------------4--5--4/2--2h4-4p2--0h2--|
A|-------4----5------7----------------------------------------4-----5------7------------------------------|
D|-0-0-----0-----0------0------0------0------0----------0-0-----0-----0-----------------------------------|

intro (play 4 times after guitar 1 finishes first time) guitar 2
e|---------------------------------------------------------------------------------------------------------|
B|---------------------------------------------------------------------------------------------------------|
G|---------------------------------------------------------------------------------------------------------|
D|---------------------------4------7------5----4--------------------------------4--7--5--4--5p4-4p2--2h4--|
A|-------4----5------7----------------------------------------4-----5------7-------------------------------|
D|-0-0-----0-----0------0------0------0------0----------0-0-----0-----0------------------------------------|


5th time, leave out the 4 on the end of the D string and the add this small addition, which leads straight into
the verse(both guitars)
e|---------------------|
B|---------------------|
G|-------0-------------| *listen for timing
D|---2-----------------|
A|---------------------|
D|---------------------|

Verse (immediately mute after each strum)12 times fast!
e|---0------|
B|---3------|
G|----------|
D|----------|
A|----------|
D|----------|

then

e|----x-3-3-3--x-3-3-3--|
B|----x-3-3-3--x-3-3-3--|
G|----------------------|
D|----------------------|
A|----------------------|
D|----------------------|
the verse ends after 4 times and leads into the chorus

Chorus (don't bother counting, I don't know the exact number of times)
e|---------------------------------------------------7---5-----------------------------|
B|----------------------------------------------------------7--5-----------------------|
G|--777777777777777777-666666666666666666-7777777777777777777777--6666666666666666666--|
D|--555555555555555555-444444444444444444-5555555555555555555555--4444444444444444444--|
A|--555555555555555555-444444444444444444-5555555555555555555555--4444444444444444444--|
D|--555555555555555555-444444444444444444-5555555555555555555555--4444444444444444444--|

then
e|-------------------------------------------------------------------|
B|-------------------------------------------------------------------|
G|--777777777777777777-666666666666666666----------------------------|
D|--555555555555555555-444444444444444444----------------------------|
A|--555555555555555555-444444444444444444----------------------------|
D|--555555555555555555-444444444444444444----------------------------|

then (2 times)
e|----7p0--5p0--3p0--5p0--3p0--2p0--3p0--2p0--|
B|--------------------------------------------|
G|--------------------------------------------|
D|--------------------------------------------|
A|--------------------------------------------|
D|--------------------------------------------|

then *(for number and timing, listen to the song) 2 times
e|------------------------|
B|------------------------|
G|---11---7---4---7---10--|
D|----9---5---2---5----8--|
A|----9---5---2---5----8--|
D|----9---5---2---5----8--|

back to intro 3 times
guitar 1
e|----------------------------------------------------------------------------------------------------------|
B|----------------------------------------------------------------------------------------------------------|
G|----------------------------------------------------------------------------------------------------------|
D|---------------------------4------5------4----2--------------------------------4--5--4/2--2h4-4p2--0h2----|
A|-------4----5------7----------------------------------------4-----5------7--------------------------------|
D|-0-0-----0-----0------0------0------0------0----------0-0-----0-----0-------------------------------------|

guitar 2
e|----------------------------------------------------------------------------------------------------------|
B|----------------------------------------------------------------------------------------------------------|
G|----------------------------------------------------------------------------------------------------------|
D|---------------------------4------7------5----4--------------------------------4--7--5--4--5p4-4p2--2h4---|
A|-------4----5------7----------------------------------------4-----5------7--------------------------------|
D|-0-0-----0-----0------0------0------0------0----------0-0-----0-----0-------------------------------------|

Verse (immediately mute after each strum)12 times fast!
e|---0------|
B|---3------|
G|----------|
D|----------|
A|----------|
D|----------|

then
e|----x-3-3-3--x-3-3-3--|
B|----x-3-3-3--x-3-3-3--|
G|----------------------|
D|----------------------|
A|----------------------|
D|----------------------|
the verse ends after 4 times and leads into the chorus

Chorus (don't bother counting, I don't know the exact number of times)
e|---------------------------------------------------7---5-----------------------------|
B|----------------------------------------------------------7--5-----------------------|
G|--777777777777777777-666666666666666666-7777777777777777777777--6666666666666666666--|
D|--555555555555555555-444444444444444444-5555555555555555555555--4444444444444444444--|
A|--555555555555555555-444444444444444444-5555555555555555555555--4444444444444444444--|
D|--555555555555555555-444444444444444444-5555555555555555555555--4444444444444444444--|

then
e|-------------------------------------------------------|
B|-------------------------------------------------------|
G|--777777777777777777-666666666666666666----------------|
D|--555555555555555555-444444444444444444----------------|
A|--555555555555555555-444444444444444444----------------|
D|--555555555555555555-444444444444444444----------------|

then (2 times)
e|----7p0--5p0--3p0--5p0--3p0--2p0--3p0--2p0--|
B|--------------------------------------------|
G|--------------------------------------------|
D|--------------------------------------------|
A|--------------------------------------------|
D|--------------------------------------------|

then *(for number and timing, listen to the song) 2 times
e|------------------------|
B|------------------------|
G|---11---7---4---7---10--|
D|----9---5---2---5----8--|
A|----9---5---2---5----8--|
D|----9---5---2---5----8--|

part before reggae
e|-------/19v------|(2x)
B|---/18v----------|
G|-----------------|
D|-----------------|
A|-----------------|
D|-----------------|

reggae part(strum up)
play this until verse starts again
e|---5--5--5--5--7--7--7--7-------|
B|---5--5--5--5--5--5--5--5-------|
G|---7--7--7--7--7--7--7--7-------|
D|---7--7--7--7--5--5--5--5-------|
A|---5--5--5--5--5--5--5--5-------|
D|--------------------------------|

Verse (immediately mute after each strum)12 times fast!
e|---0------|
B|---3------|
G|----------|
D|----------|
A|----------|
D|----------|

then
e|----x-3-3-3--x-3-3-3--|
B|----x-3-3-3--x-3-3-3--|
G|----------------------|
D|----------------------|
A|----------------------|
D|----------------------|
the verse ends after 3 times and leads into the chorus

then
e|--12/15-15-15-15-15-------|
B|--------------------------|
G|--------------------------|
D|--------------------------|
A|--------------------------|
D|--------------------------|

then *(for number and timing, listen to the song) 4 times
e|------------------------|
B|------------------------|
G|---11---7---4---7---10--|
D|----9---5---2---5----8--|
A|----9---5---2---5----8--|
D|----9---5---2---5----8--|

then they add another "going to get me!"
e|--------------|
B|--------------|
G|------7---10--|
D|------5----8--|
A|------5----8--|
D|------5----8--|

I am not sure that I have the last part correct but it sounds close. 2 times
e|---------10-----------------------------------------------10----------------------------------------------|
B|------------10------------------------------------------------10------------------------------------------|
G|---------------10-------------------------------------------------10--------------------------------------|
D|-------------------12/------------------------------------------------12/-------------------8------9------|
A|----------------------------------------8p6p5p0---------------------------------------------8------9------|
D|--0--0------------------0--0------5h6h8-------------0--0--------------------0--0-------6666-8-6666-9------|
Добавлено: 17.12.2015
Другие материалы по этой песне:
  • Аккорды и текст

Страница создана 17.12.2015
http://primanota.ru/33-west/smoke-in-seat-four-chords.htm
Привет, Гость.
Предлагаем пройти революционный курс по гитаре.
Подарок от PrimaNota.Ru, забирай!