PrimaNota.ru - самый крупный в мире бесплатный архив песенных текстов, аккордов, табулатур и нот


33 West - Rust And Solder - таба, видео

Регистрация Запомнить меня
Войти через:  Facebook Google Twitter Vk Yandex Mail.ru

33 West - Rust And Solder - таба, видео

Печатать
Просмотров: 62
-------------------------------------------------------------------------------
                             Rust And Solder- 33 West
-------------------------------------------------------------------------------
Tabbed by: benlands3
E-mail: benlands3@gmail.com

Tuning: standard
repeat *
I plan to add more later

e|-------------------------10-10-9-9-----------------------------10-10-9-9-------|
B|-*-------------10-10-9-9-----------10-10-------------10-10-9-9-----------10-10-|
G|-------9-9-7-7-------------------------------9-9-7-7---------------------------|
D|---7-7-----------------------------------7-7-----------------------------------|
A|-------------------------------------------------------------------------------|
E|-------------------------------------------------------------------------------|

e|-------------------------------------------------------------------------------------|
B|------10-10-9-9-10-10-12-12-10-10-9-9-10-10-----10-10-9-9-10-10-12-10-9-10-12-10-9-10|
G|-------------------------------------------------------------------------------------|
D|--9-9---------------------------------------9-9--------------------------------------|
A|----------------------------------------------------------------------------------*--|
E|-------------------------------------------------------------------------------------|

on the last time play 9 on G instead of 10 on B for the last note
e|-------------------------------------------------------------------------------------|
B|------10-10-9-9-10-10-12-12-10-10-9-9-10-10-----10-10-9-9-10-10-12-10-9-10-12-10-9---|
G|-----------------------------------------------------------------------------------9-|
D|--9-9---------------------------------------9-9--------------------------------------|
A|-------------------------------------------------------------------------------------|
E|-------------------------------------------------------------------------------------|

then
e|---------------------------------------------------------------------------|
B|-7-7-7-7-7-7-7--2222222222222222222----------------------------------------|
G|-7-7-7-7-7-7-7--2222222222222222222----------------------------------------|
D|-7-7-7-7-7-7-7--2222222222222222222-222222222222222222--7777777777777777777|
A|------------------------------------222222222222222222--7777777777777777777|
E|------------------------------------000000000000000000--5555555555555555555|



************************************

| /   slide up
| \   slide down
| h   hammer-on
| p   pull-off
| ~   vibrato
| +   harmonic
| x   Mute note
| b   Bend
| pb  Pre-bend
| br  Bend release
| pbr Pre-bend release
| brb Bend release bend

************************************
Добавлено: 07.05.2016
Вам также может быть интересно:
Другие материалы по этой песне:
  • Аккорды и текст

Страница создана 07.05.2016
http://primanota.ru/33-west/rust-and-solder-chords.htm
Привет, Гость.
Предлагаем пройти революционный курс по гитаре.
Подарок от PrimaNota.Ru, забирай!