PrimaNota.ru - самый крупный в мире бесплатный архив песенных текстов, аккордов, табулатур и нот


33 West - Coming Home - таба, видео

Регистрация Запомнить меня
Войти через:  Facebook Google Twitter Vk Yandex Mail.ru

33 West - Coming Home - таба, видео

Печатать
Просмотров: 125
Уроки эстрадного вокала в Санкт-Петербурге
-------------------------------------------------------------------------------
                             Coming Home - 33 West
-------------------------------------------------------------------------------
Tabbed by:
E-mail: benlands3@gmail.com

Tuning: Standard
* repeat

e|--x---4---x---0------x---0---x---0---x---0-0-0-0-0-------------------------|
B|--x---5---x---5------x---5---x---5---x---0-0-0-0-0-------------------------|
G|*-x---6---x---6------x---6---x---6---x---6-6/8-8-8-------------------------|
D|--x---6---x---6------x---6---x---6---x---7-7/9-9-9-------------------------|
A|--x---4---x---0------x---0---x---0---x-------------------------------------|
E|---------------------------------------------------------------------------|

e|--x---4---x---0------x---0---x---0---x-------x-----------------------------|
B|--x---5---x---5------x---5---x---5---x---4---x---4-------------------------|
G|--x---6---x---6------x---6---x---6---x---4---x---4------*------------------|
D|--x---6---x---6------x---6---x---6-----------------------------------------|
A|--x---4---x---0------x---0---x---0-----------------------------------------|
E|---------------------------------------------------------------------------|

Distortion part
e|---------------------------------------------------------------------------|
B|-------------7/9--9/10--10-------------12---9-9/10--10---------------------|
G|--6---9---------------------6---9------------------------------------------|
D|-------------4/6--6/7---7--------------9----6-6/7---7----------------------|
A|--4---7---------------------4---7------------------------------------------|
E|---------------------------------------------------------------------------|


************************************

| /   slide up
| \   slide down
| h   hammer-on
| p   pull-off
| ~   vibrato
| +   harmonic
| x   Mute note
| b   Bend
| pb  Pre-bend
| br  Bend release
| pbr Pre-bend release
| brb Bend release bend

************************************
Добавлено: 07.05.2016
Другие материалы по этой песне:
  • Аккорды и текст

Страница создана 07.05.2016
http://primanota.ru/33-west/coming-home-chords.htm
Привет, Гость.
Предлагаем пройти революционный курс по гитаре.
Подарок от PrimaNota.Ru, забирай!