PrimaNota.ru - самый крупный в мире бесплатный архив песенных текстов, аккордов, табулатур и нот


32 Leaves - Only Want To Mend - таба, видео

Регистрация Запомнить меня
Войти через:  Facebook Google Twitter Vk Yandex Mail.ru

32 Leaves - Only Want To Mend - таба, видео

Печатать
Просмотров: 233
Artist: 32 Leaves
Album: Panoramic
Song: Only Want To Mend
Tunning: Guitar 1 Drop D (DADGBe)
         Guitar 2 Drop D (DADGBe)
Tabbed by: Sylahr
eMail: sylahr@hotmail.com

---KEY---
h=hammer ons
p=pull offs
b=bend
pm..=palm mute
/=slide up neck
\=slide sown neck
*= pinch harmonic
x=left hand mute (hand on neck covering strings)
---KEY---

Opening Riff 1
Guitar 1
e|-------0------------------15-15-12p10-10-12b--|
B|----------------------------------------------|
G|------9-9-------------------------------------|
D|-14\10---10-9-5p4-/-7-------------------------|
A|----------------------------------------------|
D|----------------------------------------------|

Guitar 2
e|----------------------------------------------|
B|----------------------------------------------|
G|----------------------------------------------|
D|-3--7--5--0---0-------------------------------|
A|-3--7--5--0---0-------------------------------|
D|-3--7--5--0---0-------------------------------|

Guitar 1
e|-------0-----------------10-10----------------|
B|--------------------------------8-8--5b-------|
G|------9-9-------------------------------------|
D|-14\10---10-9-5p4-/-7-------------------------|
A|----------------------------------------------|
D|----------------------------------------------|

Guitar 2
e|----------------------------------------------|
B|----------------------------------------------|
G|----------------------------------------------|
D|-3--7--5--0---0-------------------------------|
A|-3--7--5--0---0-------------------------------|
D|-3--7--5--0---0-------------------------------|

Verse 1
Guitar 1 SECOND TIME ONLY!
e|---------------------------------------------------------|
B|---------------------------------------------------------|
G|---------------------------------------------------------|
D|-9h10p9p7-5--7--9h10p9p7-5*--7--9h10p9p7-9--9h10p9p7-9b--|
A|---------------------------------------------------------|
D|---------------------------------------------------------|

Guitar 2
e|---------------------------------------------------------|
B|---------------------------------------------------------|
G|---------------------------------------------------------|play 
D|----9----9--------9----9--------5----5--------5----5-----|twice
A|----7----7--------7----7--------3----3--------3----3-----|
D|-7777-7777-77777777-7777-77773333-3333-33333333-3333-333-|
pm .... .... ........ .... ........ .... ........ .... ...

Chorus
Guitar 1
e|-----------------------------------------------------|
B|----------------------------------10b----------------|play
G|-----9-10------9-7-----------9-10----------9-7-------|twice
D|-5/7-------5/7-----10-9--5/7-----------5/7-----10-9--|
A|-----------------------------------------------------|
D|-----------------------------------------------------|

Guitar 2
e|-------------------------------|
B|-------------------------------|
G|-------------------------------|play 4 times
D|--0--7-8--8--8--3--7--5--5--5--|
A|--0--7-8--8--8--3--7--5--5--5--|
D|--0--7-8--8--8--3--7--5--5--5--|

Verse 1
Guitar 1 
e|---------------------------------------------------------|
B|---------------------------------------------------------|
G|---------------------------------------------------------|
D|-9h10p9p7-5--7--9h10p9p7-5--7--9h10p9p7-9--9h10p9p7-9b--|
A|---------------------------------------------------------|
D|---------------------------------------------------------|
                                                                Transition
Guitar 1 (continued)                                            to Chorus 
e|---------------------------------------------------------------|--------|
B|---------------------------------------------------------------|--------|
G|---------------------------------------------------------------|---9--9-|
D|-9h10p9p7-5--7--9h10p9p7-5*--7--9h10p9p7/12-10-9--9h10p9p7-9b--|-10-10--|
A|---------------------------------------------------------------|--------|
D|---------------------------------------------------------------|--------|

Guitar 2  play twice
e|---------------------------------------------------------|--------|
B|---------------------------------------------------------|--------|
G|---------------------------------------------------------|---9--9-|
D|----9----9--------9----9--------5----5--------5----5-----|-10-10--|
A|----7----7--------7----7--------3----3--------3----3-----|--------|
D|-7777-7777-77777777-7777-77773333-3333-33333333-3333-333-|--------|
pm .... .... ........ .... ........ .... ........ .... ...

Bridge 1
Guitar 1
e|------------------------------------------------------------------------|
B|------------------------------------------------------------------------|
G|------------------------------------------------------------------------|
D|-7-9-7-9-7-9-7-9-7-9-7-9-7-9-7h9h10p9p7---------------------------------|
A|----------------------------------------3-5-3-5-3-5-3-5-3-5-3h5h6p5p3p0-|
D|------------------------------------------------------------------------|

Guitar 1
e|------------------------------------------------------------------------|
B|------------------------------------------------------------------------|
G|------------------------------------------------------------------------|
D|-7--------------------------------------0-------------------------------|
A|-7--------------------------------------0-------------------------------|
D|-7--------------------------------------0-------------------------------|

Transition 1
Both Guitars 1 and 2!
e|-----------------------------------|
B|-----------------------------------|
G|-----------------------------------|go repeat to Bridge 1
D|-----------------------------------|then to Transition 2
A|-33-3-335-555-------5----5------5--|
D|-33-3-335-555--0000-0--0-0--000-0--|
pm .. . ... ...  ....    .    ...   

Transition 2
Both Guitars 1 and 2!
e|------------|
B|------------|
G|------------|
D|------------|
A|-33-3-335-5-|
D|-33-3-335-5-|
pm .. . ... .

Bridge 2
Both Guitars 1 and 2!
e|------------------------------------------|
B|------------------------------------------|
G|--------------------------7-9-9-109-9-7-9-|play 4 times
D|-10-12-12-10-12-12-13-12--7-9-9-109-9-7-9-|
A|-10-12-12-10-12-12-13-12--5-7-7-8-7-7-5-7-|
D|-10-12-12-10-12-12-13-12--5-7-7-8-7-7-5-7-|

Opening Riff 2
Guitar 1
e|-------0------------------15-15-12p10-10-12b--|
B|----------------------------------------------|
G|------9-9-------------------------------------|
D|-14\10---10-9-5p4-/-7-------------------------|
A|----------------------------------------------|
D|----------------------------------------------|

Guitar 2
e|----------------------------------------------|
B|----------------------------------------------|
G|----------------------------------------------|
D|-3--7--5--0---0-------------------------------|
A|-3--7--5--0---0-------------------------------|
D|-3--7--5--0---0-------------------------------|

Guitar 1
e|-------0--------------------------------------|
B|----------------------------------------------|
G|------9-9-------------------------------------|
D|-14\10---10-9-10--9---7-----------------------|
A|----------------------------------------------|
D|----------------------------------------------|

Guitar 2
e|----------------------------------------------|
B|----------------------------------------------|
G|----------------------------------------------|
D|-3--7--5--0---0-------------------------------|
A|-3--7--5--0---0-------------------------------|
D|-3--7--5--0---0-------------------------------|

Bridge 3
Both Guitars 1 and 2. (Both Clean and with Echo effect)
e|-------------------------------------|
B|-------------------------------------|Play this twice
G|-------------------------------------|then Guitar 1 and 2 split
D|-10-10--14-14-x14---10-10--14-14-x17-|into the following riffs below
A|-10-10--14-14-x14---10-10--14-14-x17-|
D|-------------------------------------|

Guitar 1
e|--------------------------------|
B|--------------------------------|
G|------------------------12------|
D|-7-------7-10-9*----12----------|
A|--------------------------------|
D|--------------------------------|

Guitar 1
e|--------------------|
B|--------------------|
G|--------------------|
D|-0-0-0--3-7-5-5-5---|
A|-0-0-0--3-7-5-5-5---|
D|-0-0-0--3-7-5-5-5---|

END (After Last Chorus)
Guitar 1
e|-----|
B|-----|
G|-----|
D|--9--|Hold note
A|-----|
D|-----|

Guitar 2
e|-----|
B|-----|
G|-----|
D|--0--|
A|--0--|Hold chord
D|--0--|

---ORDER---
Open Riff 1
Verse 1
Chorus
Verse 2
Chorus
Bride 1
Transition 1
Transition 2
Bridge 2
Opening Riff 2
Bridge 3
Chorus
END
---ORDER---

One of my favorite songs.
E-Mail me if you find any errors or find something i did not add.
   -Sylahr
Добавлено: 05.07.2012
Вам также может быть интересно:
Другие материалы по этой песне:
  • Аккорды и текст

Страница создана 05.07.2012
http://primanota.ru/32-leaves/only-want-to-mend-chords.htm
Привет, Гость.
Предлагаем пройти революционный курс по гитаре.
Подарок от PrimaNota.Ru, забирай!