PrimaNota.ru - самый крупный в мире бесплатный архив песенных текстов, аккордов, табулатур и нот


311 - Uplifter (album) - таба, видео

Регистрация Запомнить меня
Войти через:  Facebook Google Twitter Vk Yandex Mail.ru

311 - Uplifter (album) - таба, видео

Печатать
Просмотров: 144
311 - 'Uplifter' album tab

Tracks:
1. "Hey You"
2. "It's Alright"
3. "Mix It Up"
4. "Golden Sunlight"           by phaserwarrior
5. "India Ink"
6. "Daisy Cutter"              by dontlookdownkid
7. "Too Much Too Fast"
8. "Never Ending Summer"
9. "Two Drops in the Ocean"
10. "Something Out of Nothing" by BravenFan311
11. "Jackpot"                  by Animorphy
12. "My Heart Sings"

B-Sides

"Get Down"
"How Long Has It Been"
"I Like The Way"
"Sun Come Through"

Tabs written mostly by jjhand unless noted herein.

Four songs above came from others tabs that I fixed up, so I thank
phaserwarrior, dontlookdownkid, BravenFan311, and Animorphy for their contributions.


===============================================================================
===============================================================================

#1 - "Hey You"
Standard tuning
Effects: distortion & octave pedal or whammy
tabbed by jjhand

Thanks to ConcreteGuitar for a few riffs in his version of this tab.


Intro - 2 guitars, let notes ring
  play 3x                             4th time is 2 beats:
e|---------------------------|      |-----------------|
B|----------------------0----|      |-----------------|
G|----------------------4----|      |-----------------|
D|--1/3-3-3----1-3-5---------|      |--1/3-3-3----1-3-|
A|--1/3-3-3----1-3-5---------|      |--1/3-3-3----1-3-|
E|---------------------------|      |-----------------|


Intro ending:
  Lead Fill (Mahoney)
e|--------12--10------------12--10---|--------12--10-----12---------|
B|-8-10/12------12---8-10/12------12-|-8-10/12------12---12---------|
G|-----------------------------------|-------------------12---------|
D|-----------------------------------|------------------------------|
A|-----------------------------------|------------------------------|
E|-----------------------------------|------------------------------|
 |
 | Rhythm (Hexum)
e|-----------------------------------|-----------------------------|
B|---------0-----------------0-------|---------0---------0---------|
G|---------4-----------------4-------|---------4---------4---------|
D|-----------------------------------|-----------------------------|
A|-----------------------------------|-----------------------------|
E|-----------------------------------|-----------------------------|




Verse Riff - Lead only (clean tone)
   Bb              F/A              Gm        G F# F
e|-----6-------6-------5-------5--|-----3-------------1-------1--|
B|-----6-------6-------6-------6--|-----3-------------1-------1--|
G|-----7-------7-------5-------5--|-----3-------------2-------2--|
D|-----8---x-x-8-------7---x-x-7--|-----5---x-5-4-3~--3---x-x-3--|
A|---------x-x-------------x-x----|---------x-5-4-3~------x-x----|
E|-6---------------5--------------|-3---------3-2-1~-------------|
            "You change your       tune ...   many times since we met"


   Bb              F/A              F               F7
e|-----6-------6-------5-------5--|-----1-------1---1-1-1------1--|
B|-----6-------6-------6-------6--|-----1-------1---4-4-4------4--|
G|-----7-------7-------5-------5--|-----2---x-x-2---2-2-2--x-x-2--|
D|-----8---x-x-8-------7---x-x-7--|-----3---x-x-3---3-3-3--x-x-3--|
A|---------x-x-------------x-x----|-------------------------------|
E|-6---------------5--------------|-1-----------------------------|
            "But I'll always recognize  you        you're a part of me"


   Bb              F/A              F (played to beat of bass/synth melody)
e|-----6-------6-------5-------5--|-1--1--1-1---1--1--1-1---1--|
B|-----6-------6-------6-------6--|-1--1--1-1---1--1--1-1---1--|
G|-----7-------7-------5-------5--|-2--2--2-2---2--2--2-2---2--|
D|-----8---x-x-8-------7---x-x-7--|-3--3--3-3---3--3--3-3---3--|
A|---------x-x-------------x-x----|----------------------------|
E|-6---------------5--------------|----------------------------|
            "I     feel   you      whether in Jamaica or the Angel city"


   Bb              F/A              F (with Lead Fill 2)
e|-----6-------6-------5-------5--|-----1-------1-------1------1--|
B|-----6-------6-------6-------6--|-----1-------1-------1------1--|
G|-----7-------7-------5-------5--|-----2---x-x-2---x-x-2--x-x-2--|
D|-----8---x-x-8-------7---x-x-7--|-----3---x-x-3---x-x-3--x-x-3--|
A|---------x-x-------------x-x----|-------------------------------|
E|-6---------------5--------------|-1-----------------------------|
            "You're such a gift to me"


  Rhythm Fill 2      Prechorus- Both Guitars (or use octave pedal)
e|------------|      ------------------------------|
B|--10--8-----|      ----8-10-11-10-----8 10-11-10-|
G|--------10--|      -8--------------8-------------|
D|------------|      ----5-7--8--7------5-7--8--7--| play
A|------------|      -6--------------6-------------| x2
E|------------|      ------------------------------|





CHORUS- play 4x
e|-------------------------------|--------------------------------|
B|-------------------------------|--------------------------------|
G|-------------------------------|-5---5--------------------------|
D|-5---5---3-3---5---5---3-3--3--|-5---5---3-3---5---5---5-5---5--|
A|-5---5---3-3---5---5---3-3--3--|-3---3---3-3---5---5---5-5---5--|
E|-3---3---1-1---3---3---1-1--1--|-3---3---1-1---3---3---3-3---3--|




end chorus with:
   Lead
e|--------------------------------|-----------------------------|
B|--------------------------------|-----------------------------|
G|--------------------------------|-----------------------------|
D|-----4--4--4--4----4--4--4--4---|--4--4--4--4----4--4\--------|
A|-----4--4--4--4----4--4--4--4---|--4--4--4--4----4--4\--------|
E|-----2--2--2--2----2--2--2--2---|--2--2--2--2----2--2\--------|
 |
 | Rhythm                                                        2nd chorus only
e|--------------------------------|-----------------------------|---------|
B|--------7-------------7---------|-----7-------------7---------|---------|
G|----/6-----6-\3---/6-----6-\3---|-/6-----6-\3---/6------x\----|-\1~-----|
D|--------------------------------|-----------------------------|---------|
A|--------------------------------|-----------------------------|---------|
E|--------------------------------|-----------------------------|---------|
the 2nd chorus ending note goes into the Interlude





Play Verse again

Play Chorus again




Soft Interlude:
   Lead: play notes with octave pedal to sound like notes in ()
e|--------------------------------------|----------------------------------4(16)--|
B|--------------------------------------|-----------------------------------------|
G|------------6(18)-----------6(18)-----|------------------6(18)------------------|
D|-6(18)-3(15)-----6(18)-3(15)----------|-6(18)-3(15)-4(16)-----6(18)-4(16)-------|
A|---------------------------------4(16)|-----------------------------------------|
E|--------------------------------------|-----------------------------------------|


e|----------------------------------------|-----------------------------------------|
B|----------------------------------------|----------------------------------2(14)--|
G|----------------------------------------|-----------------------------------------|
D|------------4(16)-----------4(16)-------|-----------------4(16)-1(13)-2(14)-------|
A|-1(13)-2(14)-----4(16)-1(13)------------|------1(13)-2(14)------------------------|
E|---------------------------------2(14)--|-----------------------------------------|
   "Yes   I   Wander  around ..."

e|---------------------------------------|-------------------------------|
B|---------------------------------------|-----------------2(14)---------|
G|------------6(18)-----------6(18)------|-1(13)----------------1(13)----|
D|-6(18)-3(15)-----6(18)-3(15)-----------|------3(15)-4(16)--------------|Synth plays
A|---------------------------------4(16)-|-------------------------------|descending
E|---------------------------------------|-------------------------------|notes
  "Town to town ..."                                         "Lost and..."

e|---------------------------------------|---------------------------------2(14)---|
B|---------------------------------------|-----------------------------------------|
G|-----------4(16)------------4(16)------|-----------------4(16)-------------------|
D|------2(14)------4(16)-1(13)-----------|------1(13)-2(14)-----4(16)-2(14)--------|
A|-2(14)---------------------------2(14)-|-----------------------------------------|
E|---------------------------------------|-----------------------------------------|
 "Found"                                       "When so many others"

e|---------------------------------------|------------------------------|
B|---------------------------------------|------------------------------|
G|---------------------------------------|------------------------------|
D|-----------4(16)------------4(16)------|-----------------4(16)--------|
A|------2(14)------4(16)-1(13)-----------|------1(13)-2(14)-------------|
E|---------------------------------2(14)-|------------------------------|
  "Comin' down"

e|---------------------------------------|-----------------------------------|
B|---------------------------------------|-----------------------------4(16)-|
G|---------------------------------------|-----------------------------------|
D|-----------6(18)------------6(18)------|-----------------6(14)-------------|
A|------4(16)------6(18)-3(15)-----------|------3(15)-4(16)-----6(14)--------|
E|---------------------------------4(16)-|-----------------------------------|
   "The sweetness ..."                                    "Pulls me..."

                                           Distortion and volume swell
e|---------------------------------------|-----------------------------|
B|---------------------------------------|-----------------------------|
G|---------------------------------------|-4---------------------------|
D|-----------6(18)-----------------------|-4---------------------------|
A|------4(16)------6(18)-3(15)-----------|-2---------------------------|
E|---------------------------------------|-----------------------------|
 "through                     Aa  aa   aahh"




Last Chorus part 1-  Play 2x
e|---------------------------|--------------------------------|
B|---------------------------|--------------------------------|
G|---------------------------|-4---4--------------------------|
D|-4---4---2-2---4-----------|-4---4---2-2---4---4---4-4---4--|
A|-4---4---2-2---4-----------|-2---2---2-2---4---4---4-4---4--|
E|-2---2---0-0---2-----------|-2---2---0-0---2---2---2-2---2--|

e|-------------------------------|---------------------------------|
B|-------------------------------|---------------------------------|
G|-------------------------------|-4---4---------------------------|
D|-4---4---2-2---4---4---4-2--2--|-4---4---2-2---4---4---4---4---4-|
A|-4---4---2-2---4---4---4-2--2--|-2---2---2-2---4---4---4---4---4-|
E|-2---2---0-0---2---2---2-0--0--|-2---2---0-0---2---2---2---2---2-|

Last Chorus part 2 - play this 4x
e|-------------------------------|---------------------------------|
B|-------------------------------|---------------------------------|
G|-------------------------------|-4---4---------------------------|
D|-4---4---2-2---4---4---4-2--2--|-4---4---2-2---4---4---4-4---4---|
A|-4---4---2-2---4---4---4-2--2--|-2---2---2-2---4---4---4-4---4---|
E|-2---2---0-0---2---2---2-0--0--|-2---2---0-0---2---2---2-2---2---|

e|-------------------------------|---------------------------------|
B|-------------------------------|---------------------------------|
G|-------------------------------|-4---4---------------------------|
D|-4---4---2-2---4---4---4-2--2--|-4---4---2-2---4---4---4---4---4-|
A|-4---4---2-2---4---4---4-2--2--|-2---2---2-2---4---4---4---4---4-|
E|-2---2---0-0---2---2---2-0--0--|-2---2---0-0---2---2---2---2---2-|



Ending
e|---------------------------|---------------------------|-------------|
B|---7-9-10-9-----7-9-10-9---|---7-9-10-9-----7-9-10-9---|-------------|
G|-7------------7------------|-7------------7------------|-------------|
D|---------------------------|---------------------------|-4-----------|
A|---------------------------|---------------------------|-4-----------|
E|---------------------------|---------------------------|-2-----------|











===============================================================================
===============================================================================

#2 - "It's Alright"
Eb Tuning (all strings down 1 fret)
tabbed by jjhand

I was surprised to learn that 311 finally did a song in a different tuning,
since their tunes are mostly in standard. I got the chord positions from
their performance on Jimmy Kimmel (youtube).



Intro Riff (starting 0:07) - some ad-lib from this rhythm is used

  Nick (hollowbody w/ piezo)
eb|------------------------|----------------------|
Bb|------------------------|----------------------|
Gb|-/6--6--6----6----6--4--|----4----2--2----2----|
Db|-/7--7--7----7----7--6--|----6----4--4----4----|
Ab|------------------------|----------------------|
Eb|------------------------|----------------------|
  |
  |Tim (Electric 2)
eb|--------5--5------5--5--|------2--2-------2--2--|
Bb|--------5--5------5--5--|------2--2-------2--2--|
Gb|--------6--6------6--6--|------2--2-------2--2--| play both
Db|--------7--7------7--7--|------4--4-------4--4--| lines 2x
Ab|------------------------|-----------------------|
Eb|------------------------|-----------------------|
           Ab                     Fm


Continue:

  Nick
|----------------------------|------------------------|
|----------------------------|------------------------|
|-/11-11-11-----11----11--9--|----9-----7--7----7-----|
|-/12-12-12-----12----12--11-|----11----9--9----9-----|
|----------------------------|------------------------|
|----------------------------|------------------------|
|
| Tim
|--------10--10-------10--10-|-------7--7-------7--7--|
|--------10--10-------10--10-|-------7--7-------7--7--|
|--------11--11-------11--11-|-------7--7-------7--7--| play both
|--------12--12-------12--12-|-------9--9-------9--9--| lines 2x
|----------------------------|------------------------|
|----------------------------|------------------------|
         Db                          Bbm



Verse - Play Tim's Intro part only.

Lyrics:
"Stay with me,
Here with me.
Right in this instance.
Not in the distance.
Your head is off in future time.
That's when things get out of line.
Taking in this moment,
your time is so well spent.



Chorus - Both Guitars (Dist)
|-----------------------|-----------------------|-----------------------|
|-----------------------|-----------------------|-----------------------|
|-----------------------|-----------------------|-----------------------|
|-7----7----7-----7--4--|---4----4--4-----4-----|-7----7-------------5--|
|-7----7----7-----7--4--|---4----4--4-----4-----|-5----5----5--7--5--5--|
|-5----5----5--0--5--2--|---2----2--2--0--2--0--|-5----5----5--5--5--3--|

"Its Alright,                                   Wherever you are right"



|-----------------------|-----------------------|-----------------------|
|-----------------------|-----------------------|-----------------------|
|-----------------------|-----------------------|-----------------------|
|---5----5--5-----5-----|-7----7----7-----7--4--|---4----4--4-----4-----|
|---5----5--5-----5-----|-7----7----7-----7--4--|---4----4--4-----4-----|
|---3----3--3--0--3--0--|-5----5----5--0--5--2--|---2----2--2--0--2--0--|

" now.                   It's alright "


|-------------------------|-------------------------|
|-slight PM's-------------|-------------------------|
|-------------------------|-------------------------|
|-5--5--5--5--5--5--5--5--|-5--5--5--5--5--5--5--5--|
|-5--5--5--5--5--5--5--5--|-5--5--5--5--5--5--5--5--|
|-3--3--3--3--3--3--3--3--|-3--3--3--3--3--3--3--3--|

 "That's where you're suppose to be now."





Verse 2 - Same as before, lyrics are:

"Stay with me.
Here with me.
Right in this instance.
Not in the distance.

Standing at a crossroads, I was at a loss
Those temporary moments, pleasures that are stolen.
Here in the present
You're time is so well spent."







Chorus 2 - Play the same Riff but add this ending on:

 Guitar 1 (Nick)
|-------------------------|-------------------------|---------------|
|-slight PM's-------------|-------------------------|---------------|
|-------------------------|-------------------------|---------------|
|-5--5--5--5--5--5--5--5--|-5--5--5--5--5--5--5--5--|-4-------------|
|-5--5--5--5--5--5--5--5--|-5--5--5--5--5--5--5--5--|-4-------------|
|-3--3--3--3--3--3--3--3--|-3--3--3--3--3--3--3--3--|-2-------------|

"That's  where    you're   suppose  to be now____________."

Guitar 2 does pick scrapes during this Chorus 2 ending.







Slap Bass Solo - Guitar Part (play 3x with bass solo repeats)

*note lengths are indicated

    s e   s e   q     e   e     e   s  e  s  e  q     e   e
|-----------------------------|-------------------------------|
|-----------------------------|-----------------17------------|
|-----18--------19----18------|-------18--------------19--18--|
|---19----19--------------19--|-----19----19------------------|
|-----------19----------------|-19----------19----------------|
|-----------------------------|-------------------------------|

  e   s e   s e   q     e   e     e   s  e  s  e  e   e   q
|-------------------------------|-------------------------------|
|-------------------------------|-------------------------------|
|-------18--------19----18------|-------18--------16------------|
|-19--19----19--------------19--|-----19----19------------19----|
|-------------19----------------|-19----------19------19--------|
|-------------------------------|-------------------------------|

  e  s e  s e  e  e  e  e    e  s e  s e  e  e  q
|--------------------------|--------------7-----------|
|------7-------8-----7-----|------7-------------10----|
|----7----7-------------7--|----7----7----------------| play this line 2x
|-7---------7-----7--------|-9---------9-----9--------| then do repeats
|--------------------------|--------------------------|
|--------------------------|--------------------------|

NOTES:
s = sixteenth
e = eighth
q = quarter




Final Chorus (2:50) - Play First Chorus, then repeat it like the
second chorus was with the extended ending. The final chord is

Ending:
|---------------|
|---------------|
|---------------|
|-4-------------|
|-4-------------|
|-2-------------|











===============================================================================
===============================================================================

#3 - "Mix It Up"
Standard Tuning
Effects - Wah, Distortion, bass octave pedal, delay
tabbed by jjhand


Intro:

play 3x                                              Ending:
e|------------------------------------0-----|       |---------------------------|
B|------------------------------------0-----|       |---------------------------|
G|----------------------5-------------1-----|       |---------------------------|
D|-6--6--6--6--6--6--6--6----2--2--2--2-----|       |--6--------4-------4-------|
A|-6--6--6--6--6--6--6--6----2--2--2--2-----|       |--6--------6-------6-------|
E|-4--4--4--4--4--4--4--4----0--0--0--0-----|       |--4--------4-------4-------|



Verse - play 12x, some times note in () is not played
e|----------------------------------------|
B|----------------------------------------|
G|----------------------------------------|
D|----------------------------------------|
A|----------------------------------------|
E|-4--4-(4)-6--4--4----4--4--4--4--4----4-|



Prechorus - Play Verse 4x with distortion,

then use wah and play this 2x:
   o       o  o        o        +o        etc
e|-----------------------------------|----------------------------------------|
B|-----------------------------------|----------------------------------------|
G|-----------------------------------|----------------------------------------|
D|-----------------------------------|----------------------------------------|
A|-----------------------------------|----------------------------------------|
E|-4-------4--4--------4--------4----|----4-------4--4--------4--------4------|



Chorus -

play 3x                                         Ending - play 2x
e|---------------------------------------|     -------------------------------|
B|---------------------------------------|     -------------------------------|
G|-4--4--4--4--4--4----------------------|     -------------------------------|
D|-4--4--4--4--4--4----6----6--6----6----|     --4-------4-------4------------|
A|-2--2--2--2--2--2----6----6--6----6----|     --4-------4-------4------------|
E|-2--2--2--2--2--2----4----4--4----4----|     --2-------2-------2------------|


After Chorus ending, Rhythm plays this into next bar:
e|----------------|
B|----------------|
G|----------------|
D|-6--------------|
A|-6--------------|
E|-4--------------|

Rhythm Guitar then starts playing verse riff again


Lead plays (at 1:33, the first note overlaps the end of the Chorus)
e|-----------|----------------------|---------------------|--------------------|
B|-----------|----------------------|---------------------|--------------------|
G|---6-------|----------------------|---------------------|--------------------|
D|-----------|---10-------10--8--6--|-8---10-6-------8p6--|-8/10------10--8--6-|
A|-----------|----------------------|---------------------|--------------------|
E|-----------|----------------------|---------------------|--------------------|

e|-----------------------------|-----------------|
B|-----------------------------|-----------------|
G|-----------------------------|-----------------|
D|-8---10-6--------4h6p4p3-4-3-|-----------------|
A|-----------------------------|-4-3-------------|
E|-----------------------------|-----------------|
 Note that Tim Mahoney plays this with an octave pedal that adds a note 1 octave lower.




Play Verse Riff again, but add additional guitar at the end of Tim's part (1:47)
e|----------------------|----------------------|---------------------|--------|
B|------12--------------|------12-----------14-|------12----------11-|--------|
G|-13--------11---------|-13--------11---------|-13--------11--------|-13-----|
D|----------------------|----------------------|---------------------|--------|
A|----------------------|----------------------|---------------------|--------|
E|----------------------|----------------------|---------------------|--------|
   * Effects: Use fast delay setting




Play Prechorus Distorted part

Play Chorus to end song










===============================================================================
===============================================================================

#4 - "Golden Sunlight"
Tabbed by phaserwarrior (Julian Loiacono)
Tuning: Standard (eBGDAE), Effects: Flange, Distortion, Reverb/delay



Main riff:
e|----------12--9----7----|
B|----------12--9----7----|
G|------------------------|
D|------------------------|
A|------------------------|
E|--0---------------------|


Verse 1 - Play Main Riff except during these parts:

   (0:20-0:24)    6 beats

 e|--4-7-7-4-7/9----9/10-7----|
 B|--4-7-7-4-7/9----9/10-7----|
 G|---------------------------|
 D|---------------------------|
 A|---------------------------|
 E|---------------------------|
"retreat that option's far and away..."



  (0:30-0:35)  * is Guitar with flange effects,
  the clean guitar plays the other notes.

   *
e|--------------7-|-0----0-------------------|
B|--------7--9--9-|-0----0-----7/9-9-9---9-9-|
G|-7----7-7--9----|-6----4-----7/9-9-9---9-9-|
D|-7----7---------|-7----7-------------------|
A|-5--------------|--------------------------|
E|----------------|--------------------------|
  "the golden sunlight"





Chorus:

   E             C#m B  A
e|-------------|-------------|------------|------------|
B|-------------|-5-----------|------------|------------|
G|-9-----------|-6-----------|-4----------|-2----------|
D|-9-----------|-6-----------|-4----------|-2----------|
A|-7-----------|-4-----------|-2----------|-0----------|
E|-0-----------|-4-----------|-2----------|-0----------|
"There's a door open to walk through, all I want is just beyond"
"What if I could let my guard down, into freedom on and on"




Play Verse Again



Play Chorus Again 2x



Lead Guitar Chorus Riff (2:18)
e|------------------------|------------------------|
B|-10---------------9-----|-12-14------10---12-----|
G|-------9----11----------|------------------------|
D|-7----------------6-----|-9--11-------7----9-----|
A|-------7----9-----------|------------------------|
E|------------------------|------------------------|

e|------------------------|------------------------|
B|-(12)--12----12---9-----|-10---------------------|
G|------------------------|------------------------|
D|-(9)---9-----9----6-----|-7----------------------|
A|------------------------|------------------------|
E|------------------------|------------------------|

e|------------------------|------------11----12----|
B|------------9-----10----|-12---14----------------|
G|-9----11----------------|------------8------9----|
D|------------6-----7-----|-9----11----------------|
A|-7----9-----------------|------------------------|
E|------------------------|------------------------|

e|-11----9----------9-11--|------------|------------|
B|------------12----------|-10---------|-(10)-------|
G|--8----6----------6--8--|------------|------------|
D|------------9-----------|-7----------|-(7)--------|
A|------------------------|------------|------------|
E|------------------------|------------|------------|



Break (2:43)

e|------------------------|------------------------|
B|------------------------|------------------------|
G|------------------------|------------------------|
D|------------------------|-----------------7p6h7--|
A|--------5h7-7-7-7-5p4---|-------5h7-7-7-7--------|
E|-0--0-0--------------5--|0--0-0------------------|


e|------------------------|-------------------------|
B|------------------------|-------------------------|
G|------------------------|-------------------------|
D|------------------------|-------------------------|
A|--------5h7-7-7-7-5p4---|-------------------------|
E|-0--0-0--------------5--|0--0-0-2p0--3--2--0-3h4--|

e|------------------------|------------------------|
B|------------------------|------------------------|
G|------------------------|------------------------|
D|------------------------|-----------------7p6h7--|
A|--------5h7-7-7-7-5p4---|-------5h7-7-7-7--------|
E|-0--0-0--------------5--|0--0-0------------------|


e|------------------------|-------------------------|
B|------------------------|-------------------------|
G|------------------------|-------------------------| distortion on
D|------------------------|-------------------------| at end of line
A|--------4h5-5-5-5-5p4---|--------------------5/6--|
E|-0--0-0--------------5--|0--0-0-2p0--3--2--0-3/4--|



Play Chorus 2x to end song, add Lead Chorus Riff on 2nd time through







===============================================================================
===============================================================================

#5 - "India Ink"
Standard Tuning
tabbed by jjhand, with heavy distortion throughout


This song sounds like a low-tuned guitar but thanks to youtube I noticed
that Tim Mahoney was playing his normal PRS guitar in the concert footage.
P-nut must be playing the low notes of the chords on his bass I guess.


Intro:
  Bb C            play 4x
e|--------------------------|
B|--------------------------|
G|--------------------------|
D|--------------------------|
A|-1-3-3--3--3--3--3--3--3--| on last time the rhythm stops on 3rd beat
E|-1-3-3--3--3--3--3--3--3--|
   PM all notes





Verse:
Part 1, play this 4x:              Part 2
e|----------------------|      |----------------------------|----------------------|
B|----------------------|      |----------------------------|----------------------|
G|----------------------|      |----------------------------|----------------------|
D|----------------------|      |----------------------------|----------------------|
A|-1h3-------1-1h3------|      |-x-1-1--xx-1--xx-1--xxx-|-x-1-1--xx-1--xx-1--1-1-1-|
E|-1h3-------1-1h3------|      |-x-1-1--xx-1--xx-1--xxx-|-x-1-1--xx-1--xx-1--1-1-1-|
     mute each note lightly after playing

Play Part 1 again 4x, then Part 2 again 2x





Chorus:       play 4x with rhythm changes in the second bar
e|-------------------------|-------------------------|
B|-------------------------|-------------------------|
G|-------------------------|-5--5--5--5--5--5--5--5--|
D|-------------------------|-5--5--5--5--5--5--5--5--|
A|-6--6--6--6--8--8--8--8--|-3--3--3--3--3--3--3--3--|
E|-6--6--6--6--8--8--8--8--|-3--3--3--3--3--3--3--3--|




Repeat Verse


Repeat Chorus


Bridge - Guitar w/ wah, second guitar strums these chords
   F       Eb        C7
e|-----------------|--------------------|
B|-----------------|--------------------| play this 4x
G|-2-------0-------|-3------------------|
D|-3-------1-------|-2------------------|
A|-3-------1-------|-3------------------|
E|-----------------|--------------------|

   Sitar part (actual sitar, or digital effect used), play during the bridge

   1.                    2.                    3.
e|---------------------|-----------6-5-------|-----------5----------------------------|
B|-6h8-6-5-6-6h8-6-5---|-6h8-6-5-8-----8-5---|-6h8-6-5-6---8-6-5----------------------|
G|---------------------|---------------------|-------------------5----7----5-5-5-5-5\-|
D|---------------------|---------------------|----------------------------------------|
A|---------------------|---------------------|----------------------------------------|
E|---------------------|---------------------|----------------------------------------|



Bridge Part 2,   play 4x
   G     C     Bb    Eb      G
e|-------------------------|----------------------|
B|-------------------------|----------------------|
G|-------5-5---------8-8---|----------------------|
D|-5-5---5-5---8-8---8-8---|-5-5-------5-5-5------|
A|-5-5---3-3---8-8---6-6---|-5-5-------5-5-5------|
E|-3-3---------6-6---------|-3-3-------3-3-3------|




Repeat Chorus 2x and play the final chord a few times at the ending


===============================================================================
===============================================================================

#6 - "Daisy Cutter"
Standard Tuning, with Distortion & octave pedal
tabbed by dontlookdownkid (Ultimate-Guitar.com)

Video of dontlookdownkid playing this:
http://www.youtube.com/watch?v=dg8sIj3MAz8

Tuning: Standard

Verse:
e|----------------------|-------------------------|
B|----------------------|-------------------------|
G|----------------------|-------------------------|
D|----------------------|-------------------------|
A|---8~--8x-----7~--7x--|-3---3-x-3-x-3-x-3-x-3---|
E|-5-5~--5x---3-3~--3x--|-1---1-x-1-x-1-x-1-x-1---|


Verse: (part 2)
e|----------------------------|
B|----------------------------|
G|----------------------------|
D|----------------------------|
A|-8-8-8-8-8\---x-3----x-3----|
E|-6-6-6-6-6\---x-1----x-1----|




Pre-Chorus:
e|-3-3-3-3-3-3-3-3--|
B|-3-3-3-3-3-3-3-3--|
G|-0-0-0-0-0-0-0-0--|
D|-2-2-2-2-2-2-2-2--|
A|-1-1-1-1-1-1-1-1--|
E|------------------|



Chorus:
e|-----------------------------|
B|-----------------------------|
G|-----------------------------|
D|-3-3-3-3-3/----10-x-x-10-x-x-| play 3x
A|-3-3-3-3-3/----10-x-x-10-x-x-|
E|-1-1-1-1-1/----8--x-x-8--x-x-|

e|-----------------------------|
B|-----------------------------|
G|-----------------------------|
D|-3-3-3-3-3/----10-x-x----x-x-|
A|-3-3-3-3-3/----10-x-x--3-x-x-|
E|-1-1-1-1-1/-----8-x-x--0-x-x-|

e|-----------------------------|
B|-----------------------------|
G|-----------------------------|
D|-3-3-3-3-3/----10-x-x-10-x-x-| play 4x
A|-3-3-3-3-3/----10-x-x-10-x-x-|
E|-1-1-1-1-1/----8--x-x-8--x-x-|



End of First Chorus (use octave pedal):

e|---------------------------------------------------------|
B|--------------------------------------------10-11-13-11~-|
G|------------------------------------9-10-12--------------|
D|-3~~~~~~~-------------------8-10-12----------------------|
A|-3~~~~~~~-----------8-10-12------------------------------|
E|-1~~~~~~~------------------------------------------------|





Second Verse:
e|---5---5----3---3----1---1----1---1---|
B|---5---5----3---3----1---1----1---1---|
G|---5---5----4---4----2---2----2---2---|
D|--------------------------------------|
A|-7--------5--------3--------3---------|
E|-5--------3--------1--------1---------|



Second Verse: (part 2)
e|----------------------------|
B|----------------------------|
G|----------------------------|
D|-8-8-8-8-8\----x-3----x-3---|
A|----------------------------|
E|----------------------------|



Repeat Pre Chorus/Chorus



Bridge:

"It's four months now..."
e|-----------------|-----------------|----------------|
B|-----------------|-----------------|----------------|
G|-----------------|-----------------|----------------|
D|-7-7-7-7-7-7-7-6-|-6-6-6-6-6-6-6-6-|8-8-8-8-8-8-8-8-|
A|-7-7-7-7-7-7-7-6-|-6-6-6-6-6-6-6-6-|6-6-6-6-6-6-6-6-|
E|-5-5-5-5-5-5-5-4-|-4-4-4-4-4-4-4-4-|6-6-6-6-6-6-6-6-|

  "To...my...life.."
e|-------------------|-----------------|-----------------|
B|-------------------|-----------------|-----------------|
G|-------------------|-----------------|-----------------|
D|-------------------|-----------------|-8-8-8-8-8-8-8-8-|
A|-5-5-5-5-5x---4x---|-3-3-3-3-3-3-3-3-|-6-6-6-6-6-6-6-6-|
E|-6-6-6-6-6x---5x---|-4-4-4-4-4-4-4-4-|-6-6-6-6-6-6-6-6-|

"Quite-the----bomb----------------------------|my"
e|-----------------|--------------------------|
B|-----------------|--------------------------|
G|-----------------|--------------------------|
D|-----------------|-8~---7~----5~------------|
A|-5-5-5-5-5-5-5-5-|------------------7~------|
E|-6-6-6-6-6-6-6-6-|--------------------------|




Use octave pedal for this riff/solo:
e|--------------------------------------------------------|
B|--------------------------------------------------------|
G|----9/10\9-----------9/10\9--------------9/10\9---------|
D|-----------10-7~------------10-7h8r7~-----------10-7~---|
A|--------------------------------------------------------|
E|--------------------------------------------------------|

e|-------------------------------------|
B|-------------------------------------|
G|-------------------------------------|
D|-7h8r7----7--------------------------|
A|-------10---10-8h10-8----8-----------|
E|----------------------10---10-8~~~~/-|

e|--------------------------^------------------------------|
B|-------------------10h13-13/------------------------^----|
G|-------------10h12----------------------------7h10-10/---|
D|-------10h12-----------------------------7h10------------|
A|-10h12------------------------------8h10-----------------|
E|-------------------------------8h10----------------------|

e|----------------------------------------------------------------|
B|----------------------------------------------------------------|
G|-/14-12---------------------------------------------------------|
D|--------15--12h15r12----12----------------------------------^---|
A|---------------------15----15--12h15r12-10-12-10--8h10r8----8~--|
E|---------------------------------------------------------10-----|




Bridge to final Chorus:
e|-------------------------------------------------------------|
B|-------------------------------------------------------------|
G|-2-2-2-2-2x-----2-2-2-2-2x-----2-2-2-2-2x-----2-2-2-2-2x-----|
D|-3-3-3-3-3x-----3-3-3-3-3x-----3-3-3-3-3x-----3-3-3-3-3x-----|
A|-3-3-3-3-3x-----3-3-3-3-3x-----3-3-3-3-3x-----3-3-3-3-3x-----|
E|-1-1-1-1-1x-----1-1-1-1-1x-----1-1-1-1-1x-----1-1-1-1-1x-----|
"Just clap your hands..."


Repeat Chorus
Repeat Octave solo riff from the bridge


Ending:
e|------------|
B|------------|
G|-2-2-2-2-2--|
D|-3-3-3-3-3--|
A|-3-3-3-3-3--|
E|-1-1-1-1-1--|
           pm





===============================================================================
===============================================================================

#7 - "Too Much Too Fast"

Please Comment or rate this great song by 311. Good dual guitar work here.
This has an eighth note swing so every other note is slightly shorter.


Intro Pt. 1:
   Rhythm, Play 2x
e|--------------------------|
B|--------------------------|
G|--2--4--4/6---4--6--4--2--|
D|--0-----0-----0-----0-----|
A|--------------------------|
E|--------------------------|
  Guitar 1




Intro Pt. 2:
  Lead
|------9-----------------|-------10----------------|------9-----------------|-7-|
|-8/10-------------------|-10/12-------------------|-8/10-------------------|-8-|
|------------------------|-------------------------|------------------------|-0-|
|------------------------|-------------------------|------------------------|---|
|------------------------|-------------------------|------------------------|---|
|------------------------|-------------------------|------------------------|---|
|
| Rhythm
|------------------------|-------------------------|------------------------|-2-|
|------------------------|-0--5--5\3---3--5--5--0--|------------------------|---|
|-2--4--4/6---4--6--4--2-|-------0-----0-----0-----|-2--4--4/6---4--6--4--2-|---|
|-0-----0-----0-----0----|-------------------------|-0-----0-----0-----0----|---|
|------------------------|-------------------------|------------------------|---|
|------------------------|-------------------------|------------------------|---|




Verse Part 1 (don't let chords ring, make staccato) - play 2x

 A6                                        Bm
-5----5----5----5---|-5----5----5----5---|-7---7---7---7--|-7---7---7---7--|
-7----7----7----7---|-7----7----7----7---|-7---7---7---7--|-7---7---7---7--|
-6----6----6----6---|-6----6----6----6---|-7---7---7---7--|-7---7---7---7--|
-7----7----7----7---|-7----7----7----7---|-9---9---9---9--|-9---9---9---9--|
--------------------|--------------------|----------------|----------------|
--------------------|--------------------|----------------|----------------|

"Rifling through the pictures of you, I can finally tell they developed well"

"The tale I see, it tells my favorite story       of friction and glory"



Verse Part 2:

       F#m/A
-x--x--9--9--x--x--9--9--|-x--x--9--9--x--9----|-----------------|-----------------|
-x--x--7--7--x--x--7--7--|-x--x--7--7--x--7----|-----------------|-----------------|
-x--x--6--6--x--x--6--6--|-x--x--6--6--x--6----|-----------------|-----------------|
-x--x--7--7--x--x--7--7--|-x--x--7--7--x--7----|-----------------|-----------------|
-------------------------|---------------------|-2-x---x-0-x---x-|-2-x---x-0-x---x-|
-------------------------|---------------------|---x-3-x---x-2-x-|---x-3-x---x-2-x-|
"Breaking the cast of repeating the past Its not written,    that's all just fiction"



End Verse
  Clean Rhythm      C#dim             F#
|-0---0---0---0---|-0---0---0---0---|-2---2---2---2---|-------------------|
|-2---2---2---2---|-2---2---2---2---|-2---2---2---2---|----------3--------|
|-3---3---3---3---|-3---3---3---3---|-3---3---3---3---|-------3-----------|
|-2---2---2---2---|-2---2---2---2---|-4---4---4---4---|-4--2--------------|
|-----------------|-----------------|-----------------|-------------------|
|-----------------|-----------------|-----------------|-------------------|
|
| Lead w/ Distortion
|-----------------|-----------------|-----------------|-------------------|
|-----------------|-----------------|-----------------|-------------------|
|-6---------------|-----------------|-----------------|-------------------|
|-5-------------5-|---------5--7--5-|-4~--------------|-rest--------------|
|-4----------4----|-4---------------|-----------------|-------------------|
|-----------------|-----------------|-----------------|-------------------|
"Oh,  Who says it's written in stone?"




Play Verse Part 1 Again

Nick : "It's been a long time,   Oh such a long time
Finding my way all back out,   whoa
Somehow you stood by  beyond when you should die
I'm amazed at how things have turned out"


Play Verse Part 2 Again

SA : "What is revealed? What is concealed?
It makes all the difference Say what you will
We unreeled that human web Just to see how it feels?"





For Pre-Chorus, play Intro Part 1





Chorus (2 guitars, distortion):
|--------------------|--------------------|--------------------|--------------------|
|--------------------|--------------------|--------------------|--------------------|
|--------------------|--------------------|-4--4--4--4----4--4-|-4--4--4--4----4--4-|
|-7--7--7--7----7--7-|-7--7--7--7----7--7-|-4--4--4--4----4--4-|-4--4--4--4----4--4-|
|-5--5--5--5----5--5-|-5--5--5--5----5--5-|-2--2--2--2----2--2-|-2--2--2--2----2--2-|
|-5--5--5--5----5--5-|-5--5--5--5----5--5-|--------------------|--------------------|
"Too much too fast for the moment to last, I tumbled to you while stumbling through

"How do I get my   head up off of the tracks Listening for a train, ah"



|---------------------|---------------------|---------------------|
|---------------------|---------------------|---------------------|
|---------------------|---------------------|---------------------|
|---------------------|---------------------|---------------------|
|-5--5-5--5-5--5-5--5-|-5--5-5--5-5--5-5--5-|-4--4-4--4-4--4-4--4-|
|-3--3-3--3-3--3-3--3-|-3--3-3--3-3--3-3--3-|-2--2-2--2-2--2-2--2-|
         "Cause that's just   no    way   to live"


 One Guitar:               Two Guitars:
------------------------|---------------------|---------------------|
-2h3p2-0h2p0------------|---------------------|---------------------|
-------------3h4p3------|---------------------|---------------------|
-------------------5~---|---------------------|---------------------|
------------------------|-5--5-5--5-5--5-5--5-|-5--5-5--5-5--5-5--5-|
------------------------|-3--3-3--3-3--3-3--3-|-3--3-3--3-3--3-3--3-|
                                         "I got so   much    love to"

  Distorted Rhythm
|---------------------|------------------|---------------|--------------------|
|---------------------|------------------|---------------|--------------------|
|---------------------|------------------|---------------|--------------------|
|---------------------|------------------|-0-------------|-(0)----------------|
|-7--7-7--7-7--7-7--7-|-7----------------|-0-------------|-(0)----------------|
|-5--5-5--5-5--5-5--5-|-5----------------|---------------|--------------------|
|
| Lead Guitar (2 parts)
|---------------------|----------2-------|---------------|-5b7r5--------------|
|---------------------|-------2----------|-2-------------|--------7-----------|
|---------------------|-2--0-------------|-2-------------|-----------7--b9r7--|
|---------------------|------------------|-0-------------|--------------------|
|-7--7-7--7-7--7-7--7-|------------------|---------------|--------------------|
|-5--5-5--5-5--5-5--5-|-clean------------|---------------|-dist on------------|
"Give                  Much too fast, oh"




Play Verse Part 1 Again with Lead:
|---------|---------|---------|-------------|
|---------|---------|---------|-------------|
|-6~------|-(6)-----|-7-------|-7-----7b9r7-|
|---------|---------|---------|-------------|
|---------|---------|---------|-------------| play 2x
|---------|---------|---------|-------------|

"Out of the blue It all comes in view
You never win If you don't go all in
The perfect hand can go just as you planned
I don't understand"




Play Verse Part 2 Again

"Began right on track, slipped through the cracks
We were two of a kind Who seemed destined to find
We unreeled that human web Just to see how it feels"




Play Chorus Again, same lyrics

Lead fill in Chorus at 2:57 changes to:
|----------------7-10/12~-----|
|-----------7-10--------------|
|-------7-9-------------------|
|---7-9-----------------------|
|-9---------------------------|
|-----------------------------|



After chorus ends,



Play Verse Part 1 again with Lead Part (just like 2nd time)


"So much love to give
Too much too fast
So much love to give
Too much too fast
Got so much love to give
Too much too fast
So much love to give
Too much too fast"



Ending Chord after 4x through Verse Riff with above lyrics:

|-5---------------------------|
|-7---------------------------|
|-6---------------------------|
|-7---------------------------|
|-----------------------------|
|-----------------------------|






===============================================================================
===============================================================================

#8 - 'Never Ending Summer'
Standard Tuning
Tabbed by jjhand at Ulitmate-Guitar.com


A great heavy 311 sound & a solo by Tim Mahoney make this a song
to listen to. Please rate or comment.


Verse (0:14 with Heavy Distortion)
e|-----------------------------|----------------------------|
B|-----------------------------|----------------------------|
G|-----------------------------|----------------------------|
D|-----------------------------|----------------------------|
A|-----------------------------|----------------------------|
E|-0-0---0-4---0---0---0-4---5-|-0---0-4---x--x--0h2---0h2--|

e|-----------------------------|----------------------------|
B|-----------------------------|----------------------------|
G|-----------------------------|----------------------------|
D|-----------------------------|----------------------------|
A|-----------------------------|-----------------2-2---2-2--|
E|-0-0---0-4---0---0---0-4---5-|-0---0-4---x--x-------------|

e|-----------------------------|----------------------------|
B|-----------------------------|----------------------------|
G|-----------------------------|----------------------------|
D|-----------------------------|----------------------------|
A|-----------------------------|----------------------------|
E|-0-0---0-4---0---0---0-4---5-|-0---0-4---x-x---0h2---0h2--|

e|-----------------------------|----------------------------|
B|-----------------------------|----------------------------|
G|-----------------------------|----------------------------|
D|-----------------------------|----------------------4-2-1-|
A|-----------------------------|----------------2-2---------|
E|-0-0---0-4---0---0---0-4---5-|-0---0-4---x-x--------------|



PreChorus

   C#    E5   C#     E5    F#5             Bb5 B5  C5
e|-----------------------|-----------------------------|
B|-----------------------|-----------------------------|
G|-----------------------|-----------------------------|
D|--------2-2--------2-2-|-4-----x-x-x-x-x-------------|
A|-4------2-2-4------2-2-|-4-----x-x-x-x-x-1---2---3---|
E|-4------0-0-4------0-0-|-2-----x-x-x-x-x-1---2---3---|

e|-----------------------|-----------------------------|
B|-----------------------|-----------------------------|
G|-----------------------|-----------------------------|
D|--------2-2--------2-2-|-4-----x-x-x-x-x-------------|
A|-4------2-2-4------2-2-|-4-----x-x-x-x-x-1-----2-----|
E|-4------0-0-4------0-0-|-2-----x-x-x-x-x-1-----2-----|

e|-----------------------|-----------------------------|
B|-----------------------|-----------------------------|
G|-----------------------|-----------------------------|
D|--------2-2--------2-2-|-4-----x-x-x-x-x-------------|
A|-4------2-2-4------2-2-|-4-----x-x-x-x-x-1---2---3---|
E|-4------0-0-4------0-0-|-2-----x-x-x-x-x-1---2---3---|

e|-----------------------|--------------------------|
B|-----------------------|--------------------------|
G|-----------------------|--------------------------|
D|--------2-2--------2-2-|-4----------4-5-----------|
A|-4------2-2-4------2-2-|-4----------4-5-----------|
E|-4------0-0-4------0-0-|-2----------2-3-----------|



Chorus -    play 3x
e|---------------------------------|---------------------------------|
B|---------------------------------|---------------------------------|
G|---------------------------------|---------------------------------|
D|-6-6-6-----6---6-6-6-6-----6---5-|-4-4-4-----4---4-4-4-4-----4---5-|
A|-6-6-6-----6---6-6-6-6-----6---5-|-4-4-4-----4---4-4-4-4-----4---5-|
E|-4-4-4-----4---4-4-4-4-----4---3-|-2-2-2-----2---2-2-2-2-----2---3-|


Chorus Ending
e|--------------------------------|---------------------------|
B|--------------------------------|---------------------------|
G|--------------------------------|---------------------------|
D|-6-6-6-----6---6-6-6-6-----6----|-----6-5-4-----4-3-2-------|
A|-6-6-6-----6---6-6-6-6-----6----|-----6-5-4-----4-3-2-------|
E|-4-4-4-----4---4-4-4-4-----4----|-----4-3-2-----2-1-0-------|



Play Verse Again

Play Chorus Again

Bass Solo



Bridge Guitar Part (w/ echo, phaser. Volume pedal decreases then increases)

   Eb_m
e|-6--6--6--6--6--6--6--6--|
B|-7--7--7--7--7--7--7--7--|
G|-8--8--8--8--8--8--8--8--|
D|-------------------------| play 4x
A|-------------------------|
E|-------------------------|


Now, time for the greatest solo by Tim Mahoney! Really, he can shred!

   Solo (Mahoney)
e|---------11-------------|--------------------------------|-16b18r16-14-16b18~~--18\-|
B|-14b16~----14p11-14b16~-|-14b16r14b16r14b16r14-----------|--------------------------|
G|------------------------|----------------------11~---x\--|--------------------------|
D|------------------------|--------------------------------|--------------------------|
A|------------------------|--------------------------------|--------------------------|
E|------------------------|--------------------------------|--------------------------|
 |
 | Rhythm Guitar (Hexum)
e|--------------------------|------------------------------|--------------------------|
B|--------------------------|------------------------------|--------------------------|
G|-8-----------8-8--------6-|-8------------8-8---------6---|-8-----------8-8--------6-|
D|-8--------6--8-8--6-8-9---|-8--------6---8-8---6-8-9-----|-8--------6--8-8--6-8-9---|
A|-6----8-9----6-6----------|-6----8-9-----6-6-------------|-6----8-9----6-6----------|
E|--------------------------|------------------------------|--------------------------|


   Solo
e|---------------------------------|--------------------------------|
B|-7-6---6-------------------------|--------------------------------|
G|-----8---8-6-8-6---8-6---6-------|--------------------------------|
D|-----------------9-----9---9-8-9-|-6---6------------------------6-|
A|---------------------------------|---9---9-8-9-8---6------6-8-9---|
E|---------------------------------|---------------9----------------|
 |
 | Rhythm/Harmony
e|---------------------------------|--------------------------------|
B|---------------------------------|--------------------------------|
G|-8-6---6-------------------------|-8---------------8-8----------6-|
D|-----9---9-8-9-8-6-9-8-6-8-6---6-|-8-----------6---8-8----6-8-9---|
A|-----------------------------9---|-6-------8-9-----6-6------------|
E|---------------------------------|--------------------------------|


   Solo
e|-----------------------------------|-11-----11-13--11-13-14-13h14p13-14-14p13p11-13-14-|
B|-------------------6---7--11-12-14-|---12-14-----14------------------------------------|
G|-----6---------8-------------------|---------------------------------------------------|
D|-------9---8-----------------------|---------------------------------------------------|
A|-6-8-------------------------------|---------------------------------------------------|
E|-----------------------------------|---------------------------------------------------|
 |
 | Rhythm
e|-----------------------------------|--------------------------------|
B|-----------------------------------|--------------------------------|
G|-8--------------8--8------------6--|-8--------------8-8---------6---|
D|-8----------6---8--8---6--8--9-----|-8----------6---8-8---6-8-9-----|
A|-6----8--9------6--6---------------|-6----8--9------6-6-------------|
E|-----------------------------------|--------------------------------|


   Solo
e|-14-13-11-13-11--11-----------------------------------------------|
B|---------------14--14-12-14-12-11-12-11--11-----------------------|
G|---------------------------------------13--13-11-13-11-10-11-10---|
D|---------------------------------------------------------------11-|
A|------------------------------------------------------------------|
E|------------------------------------------------------------------|
 |
 | Rhythm
e|-----------------------------------------------------------------|
B|-----------------------------------------------------------------|
G|-8---6-------6---------------------------------------------------|
D|---------9-------9---8---9---8---6---9---8---6---8---6-------6---|
A|---------------------------------------------------------9-------|
E|-----------------------------------------------------------------|


   Solo
e|-------------------------------------|----------------------------------|
B|-11--x-x-x--13p11-13p11--x-x-x-x-x-x-|-------x-x-13p11-13-13b14r13\-----|
G|-11--x-x-x--13p11-13p11--x-x-x-x-x-x-|-------x-x-13p11-13-13b14r13\-----|
D|-------------------------------------|-11h13----------------------------|
A|-------------------------------------|----------------------------------|
E|-------------------------------------|----------------------------------|
 |
 | Rhythm
e|-----------------------------------|
B|-----------------------------------|
G|-8---8-8-8-8-8---8-8---8-8-8-8-8-8-|
D|-8---8-8-8-8-8---8-8---8-8-8-8-8-8-|  <- play this 4x, but stop with Solo at end
A|-6---6-6-6-6-6---6-6---6-6-6-6-6-6-|
E|-----------------------------------|
       pm*******         pm*********

e|--------------------------------|-14p13p11-------------------------------|
B|----------------14b15-----------|---------14p12p11-11h12p11--------------|
G|--------------------------------|--------------------------13p11p10-11~--|
D|-11h13-13TP---------------------|----------------------------------------|
A|--------------------------------|----------------------------------------|
E|--------------------------------|----------------------------------------|


Play Chorus again 2x and end on G#

Ending
e|--------|
B|--------|
G|--------|
D|--6-----|
A|--6-----|
E|--4-----|




===============================================================================

#9 - "Two Drops in the Ocean"
Standard Tuning
Effects - Delay, Chorus
tabbed by jjhand

Great mellow song from a great album, nice solo too!

Riff 1 - Clean w/ delay pedal
    C                    Cmaj7
e|--8----8--8--8---------7--7--7----7--7-----|
B|--8----8--8--8----8----8--8--8----8--8--8--|
G|--5----5--5--5---------5--5--5----5--5-----|
D|-------------------------------------------|
A|-------------------------------------------|
E|-------------------------------------------|

To start song, play Riff 1 7x, then follow up with:



Riff 2:
   Dm                   Dm maj7               F
e|-10---10-10-10--------9--9--9----9--9--9--|-8----8--8--8---------9--9--9----9--9--9--|
B|-10---10-10-10---10---10-10-10---10-10-10-|-10---10-10-10---10---10-10-10---10-10-10-|
G|-10---10-10-10--------10-10-10---10-10-10-|-10---10-10-10--------10-10-10---10-10-10-|
D|------------------------------------------|------------------------------------------|
A|------------------------------------------|------------------------------------------|
E|------------------------------------------|------------------------------------------|

   F                    F(b5)
e|-8----8--8--8---------7--7--7----7--7--7--|-------------------------------|
B|-10---10-10-10---10---10-10-10---10-10-10-|-------------------------------|
G|-10---10-10-10--------10-10-10---10-10-10-|-11---12----12--------12-12-12-|
D|------------------------------------------|-9----9-----9---------9--9--9--|
A|------------------------------------------|-------------------------------|
E|------------------------------------------|-------------------------------|


e|-------------------------|
B|-------------------------|
G|--9-7-------7------5-5---|
D|-10-9-------9------5-5---|
A|-------------------------|
E|-------------------------|


At 0:36, Riff 1 returns


At 0:45, Riff 2 repeats


At 1:00, "Chorus Jam Riff" starts:  play 3x

           D           Am             G           F
e|---------8-----------5---|----------3-----------1------|
B|---------8-----------5---|----------3-----------1------|
G|---------9-----------5---|----------4-----------2------|
D|---------10----------7---|----------5-----------3------|
A|-------------------------|-----------------------------|
E|-8-8-8--------5-5-5------|-3-3-3--------1-1-1----------|


End of Chorus Jam Riff:
e|----1----1----1----1--1--1----|----1----1----1----1--1--1----|
B|----1----1----1----1--1--1----|----1----1----1----1--1--1----|
G|----2----2----2----2--2--2----|----2----2----2----2--2--2----|
D|----3----3----3----3--3--3----|----3----3----3----3--3--3----|
A|----3----3----3----3--3--3----|----3----3----3----3--3--3----|
E|----1----1----1----1--1--1----|----1----1----1----1--1--1----|




At 1:24, Riff 1 plays 3x, then play Riff 2 again


At 1:47, Chorus Jam Riff is played again




At 2:17, the Bridge Riff is played (song goes from chorus to solo)
e|-8------10------12----12-12-12-12-12---|
B|-10-----12------13----13-13-13-13-13---|
G|-10-----12------14----14-14-14-14-14---| play 3x
D|-10-----12------14----14-14-14-14-14---|
A|-8------10------12----12-12-12-12-12---|
E|---------------------------------------|

End bridge with:
e|--------------------------------|--------------------------------|
B|-12----12--12----12----12-12-12-|-12----12--12----12----12-12-12-|
G|-12----12--12----12----12-12-12-|-12----12--12----12----12-12-12-|
D|-12----12--12----12----12-12-12-|-12----12--12----13----13-13-13-|
A|--------------------------------|--------------------------------|
E|--------------------------------|--------------------------------|



Solo (Rhythm plays Riff 1 and Riff 2)

e|-------------------------|-------------------------|-------------------------|
B|-------------------------|-------------------------|-------------------------|
G|-/12---------10/12-10--9-|--9/10---9--9-------9-10-|-/12---------10/12-10--9-|
D|-/14---------12/14-12-10-|-10/12---10-10-----10-12-|-/14---------12/14-12-10-|
A|-------------------------|-------------------------|-------------------------|
E|-------------------------|-------------------------|-------------------------|

e|--------------------------------|------------------------------------|
B|--------------------15b17r15-13-|-15----15b17r15-13-15--15b17r15-13--|
G|--9/10--------------------------|---14-------------------------------|
D|-10/12--------------------------|------------------------------------|
A|--------------------------------|------------------------------------|
E|--------------------------------|------------------------------------|

e|-----------------------------------|------------------------------------|
B|-15--14----------------------------|------------------------------------|
G|---14--12h14--12-------------------|------------------------------------|
D|------------15--14h15-12h14--12----|--------------------------5h6h7-8-9-|
A|---------------------------15---15-|-14h15p14\-------------7-8----------|
E|-----------------------------------|---------------------7--------------|

e|----------------7-8----8-7------------|------------------------|
B|-----------8-10-----10-----8-----8----|------------------------|
G|----7-9-10-------------------10-----9-|------------------------|
D|-10-----------------------------------|-10---------------------|
A|--------------------------------------|------------------------|
E|--------------------------------------|------------------------|

After solo, guitar rests and synth plays.


Play Chorus Jam Riff at 3:07


End on a C chord:
e|-0----------------------------|
B|-1----------------------------|
G|-0----------------------------|
D|-2----------------------------|
A|-3----------------------------|
E|------------------------------|








===============================================================================
===============================================================================

#10 - 'Something out of Nothing'
Standard, with Distortion
tabbed by BRavenFan311


Intro:
e|---------------------|
B|---------------------|
G|---------------------|
D|---4-2-4-------------|  x4
A|---2-0-2-------------|
E|---------2-0-2-0-2---|
     . . . . . . . .    no pm 4th time

Verse:
e|---------------------|
B|---------------------|
G|---------------------|
D|---6-6---6-6-6-6-----|  x8
A|---4-4---4-4-4-4-----|
E|---4-4---4-4-4-4-----|
     .     . . .

e|---------------------------------------|
B|---------------------------------------|
G|---------------------------------------|
D|---9-9---9-9-9-9---9-9-8-8---8-8-8-8---|
A|---7-7---7-7-7-7---7-7-6-6---6-6-6-6---|
E|---7-7---7-7-7-7---7-7-6-6---6-6-6-6---|
     .     . . .     . . .     . . .

e|---------------------|
B|---------------------|
G|---------------------|
D|---6-6---6-6-6-6-----|  x2
A|---4-4---4-4-4-4-----|
E|---4-4---4-4-4-4-----|
     .     . . .

e|---------------------------------------|
B|---------------------------------------|
G|---------------------------------------|
D|---9-9---9-9-9-9---9-9-8-8---8-8-8-8---|
A|---7-7---7-7-7-7---7-7-6-6---6-6-6-6---|
E|---7-7---7-7-7-7---7-7-6-6---6-6-6-6---|
     .     . . .     . . .     . . .

e|---------------------|
B|---------------------|
G|---------------------|
D|---6-6---6-6-6-6-----|  x2
A|---4-4---4-4-4-4-----|
E|---4-4---4-4-4-4-----|
     .     . . .




Pre-Chorus:
e|---------------------------------|---------------------------------|
B|---------------------------------|---------------------------------|
G|---------------------------------|---------------------------------|
D|-9---9-9-9---9-9-9---9-9-9---9-9-|-9---9-9-9---9-9-9---9-9-9---9-9-|
A|-9---9-9-9---9-9-9---9-9-9---9-9-|-7---7-7-7---7-7-7---7-7-7---7-7-|
E|-7---7-7-7---7-7-7---7-7-7---7-7-|-7---7-7-7---7-7-7---7-7-7---7-7-|
       . .     . .     . .     . .       . .     . .     . .     . .

e|---------------------------------|-------------------------------|
B|---------------------------------|-------------------------------|
G|---------------------------------|-------------------------------|
D|-8---8-8-8---8-8-8---8-8-8---8-8-|-6---6-6-6---6-6-6---6-6-6-----|
A|-6---6-6-6---6-6-6---6-6-6---6-6-|-6---6-6-6---6-6-6---6-6-6-----|
E|-6---6-6-6---6-6-6---6-6-6---6-6-|-4---4-4-4---4-4-4---4-4-4-----|
       . .     . .     . .     . .       . .     . .     . .

e|-----------------|----------------|------------|------------|
B|-----------------|----------------|------------|------------|
G|-----------------|----------------|------------|------------|
D|---7-7-7---7-7-7-|--7-7-7---7-7-7-|-4--play----|-4--play----|
A|---5-5-5---5-5-5-|--5-5-5---5-5-5-|-4---x8-----|-4---x8-----|
E|---5-5-5---5-5-5-|--5-5-5---5-5-5-|-2----------|-2----------|
                                      PM 8x        no mutes, louder




For Chorus, Play intro 8x:




Lead Part after 1st Chorus (1:33), with wah

e|--------------------------|---------------------|
B|--------------------------|---------------------|
G|------11b13~~~---11p9-----|---------------------|
D|-9-11----------9-----11p9-|-h11~~~---9h11p9-----|
A|--------------------------|---------------------|
E|--------------------------|---------------------|



Play Verse Again



Lead Wah part during Verse 2

e|--
Добавлено: 01.07.2012
Другие материалы по этой песне:
  • Аккорды и текст

Страница создана 01.07.2012
http://primanota.ru/311/uplifter-album-chords.htm
Привет, Гость.
Предлагаем пройти революционный курс по гитаре.
Подарок от PrimaNota.Ru, забирай!