PrimaNota.ru - самый крупный в мире бесплатный архив песенных текстов, аккордов, табулатур и нот


311 - T P Combo - текст песни, таба, бас-таба, видео

Регистрация Запомнить меня
Войти через:  Facebook Google Twitter Vk Yandex Mail.ru

311 - T P Combo - текст песни, таба, бас-таба, видео

Печатать
Просмотров: 244
	311
	"T & P Combo"
	311
	Capricorn Records 1995



Riff 1
======

Guitar 1:

e:------------------------------------
B:--------7-7--------------5-5--------
G:--------x-x---4-4--6-6---x-x--------
D:--------4-4---x-x--x-x---2-2--------
A:-4-4----------2-2--4-4---------3-3--
E:-2-2---------------------------1-1--

Guitar 2:

e:-4---4---4---4---4---4---4---4-5-5-5-
B:-5---5---5---5---5---5---5---5-5-5-5-
G:-6---6---6---6---6---6---6---6-6-6-6-
D:-------------------------------------
A:-------------------------------------
E:-------------------------------------
Tim just randomly picked these chords



Riff 2
======

Guitar 1:

e:---------------------------------
B:---------------------------------
G:---------------------------------
D:---------------------------------
A:---------------------------------
E:-0-1-1-0-1-1-0-1-0-1-1-0-1-1-0-1-

e:---------------------------------
B:---------------------------------
G:---------------------------------
D:---------------------------------
A:---------------------------------
E:-1-2-2-1-2-2-1-2-1-2-2-1-2-2-1-2-

Guitar 2:

e:---------------------------------
B:---------------------------------
G:---------------------------------
D:-2-3-3-2-3-3-2-3-2-3-3-2-3-3-2-3-
A:---------------------------------
E:---------------------------------

e:---------------------------------
B:---------------------------------
G:---------------------------------
D:-3-4-4-3-4-4-3-4-3-4-4-3-4-4-3-4-
A:---------------------------------
E:---------------------------------



Riff 3
======

Guitar 1:

e:------------------------------
B:------------------------------
G:-9------------9---------------
D:-x------------x---------------
A:-7------------7---------------
E:---0--0--0--0---0---0-0-0---0-

Guitar 2:

e:-------------------------------
B:-7-7-7-7--7-7-7-7--7-7-7-7-8---
G:-7-7-7-7--7-7-7-7--7-7-7-7-8---
D:-6-6-6-6--6-6-6-6--6-6-6-6-7---
A:-7-7-7-7--7-7-7-7--7-7-7-7-8---
E:-------------------------------

e:-------------------------------
B:-7-7-7-7--7-7-7-7--7-7-7-7-6---
G:-7-7-7-7--7-7-7-7--7-7-7-7-6---
D:-6-6-6-6--6-6-6-6--6-6-6-6-5---
A:-7-7-7-7--7-7-7-7--7-7-7-7-6---
E:-------------------------------
^ only play this measure on the 2nd verse



Riff 4
======

Both guitars:

e:--------------------------------------
B:--------------------------------------
G:-9------------11-11-11-11-12-12-12-12-
D:-x------------x--x--x--x--x--x--x--x--
A:-7------------9--9--9--9--10-10-10-10-
E:---0--0--0--0-------------------------



Riff 5
======

Both guitars:

e:---------------------------------------------------------
B:---------------------------------------------------------
G:-------0-1-2-1-0-----------------------------------------
D:-0-1-2-----------2-1-0-----------------------------------
A:-----------------------2-1-0-----------------------------
E:-----------------------------3---0---3-5--3--0---0-3-5---



Riff 6
======

Both guitars:

e:----------------------------
B:----------------------------
G:----------------------------
D:----------------------------
A:----------------------------
E:-3---0---3-5--3--0--0-3-5---
Добавлено: 13.03.2012
Другие материалы по этой песне:

Страница создана 08.03.2012
http://primanota.ru/311/t-p-combo-chords.htm
Привет, Гость.
Предлагаем пройти революционный курс по гитаре.
Подарок от PrimaNota.Ru, забирай!