PrimaNota.ru - самый крупный в мире бесплатный архив песенных текстов, аккордов, табулатур и нот


311 - Sun Come Through - таба, видео

Регистрация Запомнить меня
Войти через:  Facebook Google Twitter Vk Yandex Mail.ru

311 - Sun Come Through - таба, видео

Печатать
Просмотров: 127
311 - 'Sun Come Through'
Outtake from 'Uplifter' Album Sessions
Standard Tuning
Tabbed by jjhand

This song starts out easy and has a nice shred solo toward the end. Have fun
and please rate or comment. Look for this on Youtube, or on Amazon for the mp3.

Intro
e|----------------------|---------------------|----------------------|-------------|
B|----------------------|---------------------|----------------------|-------------|
G|----------------------|---------------------|----------------------|-------------|
D|----------------------|---------------------|----------------------|-------------|
A|---------3-3----------|---------------3---3-|---------3-3----------|----4--------|
E|-4-------------4-4--3-|-2---------------4---|-4-------------4-4--3-|-2--2--------|




Verse

Play the First 2 bars of Intro 2x, then play all of Intro 

Lyrics- 

"Running the ship on an ego,  Shutting the mind and closed out

People would ask where did he go,  As the boat sunk down

Lie to yourself it's so tragic,  You become a wreck in slow mo

Breaking it down 'til you're all alone"



Verse Part 2-   play 3x with SA's lyrics:
e|----------------------|--------------------------|
B|----------------------|--------------------------|
G|----------------------|--------------------------|
D|----------------------|--------------------------|
A|---------3-3----------|----4--4--4--4--4-4-3---3-|
E|-4-------------4-4--3-|-2--2--2--2--2--2-2---4---|
                           light mutes used

"I'm in the center of a labyrinth,  I feel lost I feel imprisoned"
"Tell me there's an end,            I need some oxygen"
"How did I get here"



Verse Ending
e|----------------------|-----------------|
B|----------------------|-------------3-2-|
G|----------------------|-----------------| <- pickup notes for 
D|----------------------|-----------------|    chorus riff below
A|---------3-3----------|----4------------|
E|-4-------------4-4--3-|-2--2------------|
        "Help me make it out of here"







Chorus - play 3x                                     Ending
e|-----2---------2-----|-----2-----2-------|        |-3--------|-2-------|
B|---------2---------2-|-------2-----------|        |-0--------|-2-------|
G|-4---------3---------|-2-----------------|        |-0--------|-3-------|
D|---------------------|-------------------|        |-0--------|-4-------|
A|---------------------|-------------------|        |----------|---------|
E|---------------------|-------------------|        |----------|---------|

1. Nick: "I can see it all now clear at last, the fog has lifted"
   SA :  "If I only knew"

2. Nick: "All came in focus at once, it's such a gift"
   SA :  "If I knew the truth"

3. Nick: "As long as I've been here never could I steer clear of myself"
   SA:   "Think what I could do"

Ending:  "Sun come through"




Play Verse Part 2 Again 

Play Chorus Again



Bridge - play through 2x with different Endings                     

   C#5                         A                          E
e|---------------------------|---------------------------|--------------------------------|
B|---------------------------|---------------------------|--------------------------------|
G|---------------------------|---------------------------|--------------------------------|
D|-6-6---6--6--6--6--6-6--6--|-7-7---7--7--7--7--7-------|-2-2---2--2--2--2--2--2--2-4-2--|
A|-4-4---4--4--4--4--4-4--4--|-7-7---7--7--7--7--7-------|-2-2---2--2--2--2--2--2--2------|
E|-4-4---4--4--4--4--4-4--4--|-5-5---5--5--5--5--5-5-7-5-|-0-0---0--0--0--0--0--0--0------|

Ending 1                                     Ending 2
e|---------------------------------|         |---------------------------------|
B|---------------------------------|         |---------------------------------|
G|---------------------------------|         |---------------------------------|
D|-------4-4-4-2-2-----------------|         |-------4-4-4-2-2-----------------|
A|-2-2-2-------------------7-6-4-6-|         |-2-2-2-----------3-3-3-3-3-3-3-3-|
E|-----------------4-4-4-4---------|         |---------------------------------|


"I'm finally home
I see a light house
I don't have to roam
It's not all black out
I can see it all now
Out of nowhere came a clue
Truth I hid the truth I hid from me
Hit the skids I hit the skids only
To find a light to light my way home
Sun come through"





Solo Rhythm:   () indicates Tim's Lead part, ^ indicates short quiet notes
e|----------------------|-------------------|-------------------|-------------------|
B|----------------------|-------------------|-------------------|-------------------|
G|----------------------|-------------------|-------------------|-------------------|
D|----------------------|-------------------|-------------------|-------------------|
A|-8-8------8-8---(8\)--|--8--8---8-8-------|-8-8------8-8------|--8--8---8-8---6-6-|
E|-6-6------6-6---(6\)--|--6--6---6-6-------|-6-6------6-6------|--6--6---6-6---4-4-|
                              ^                                       ^

Tim's Solo (2:27)
e|--------------------------|---------------------------|--------------------------|
B|------15----13----11----9-|-8b9~----------------------|-----------8-8/9--9-11-12-|
G|--------------------------|--------8/10-8p7-----------|---7-8-10-------12--------|
D|-13/15----13----12----10--|-----------------9-8-8PH~--|--------------------------|
A|--------------------------|---------------------------|--------------------------|
E|--------------------------|---------------------------|--------------------------|

e|-----11-11-11-13--13~\---14-|-13h14p13-11-13-11-------------------------|
B|-/14------------------------|------------------14-13-14-13\11-13-11-----|
G|----------------------------|--------------------------------------13---|
D|----------------------------|-------------------------------------------|
A|----------------------------|-------------------------------------------|
E|----------------------------|-------------------------------------------|

e|-------------------------------------|---------------------------------------------|
B|-------------------------------------|--------------------------13-15-16-15-13--13-|
G|-12h13p12-10-12-10-------------------|-----------10-13-12-13-/15--------------15---|
D|------------------13-12-13-12--------|------12h13----------------------------------|
A|-----------------------------13-11---|-11h13---------------------------------------|
E|-------------------------------------|---------------------------------------------|

e|------13-15-16/18-15-16-18/20-16-18-20p18p16-18-20-|
B|-15-16---------------------------------------------|
G|---------------------------------------------------|
D|---------------------------------------------------|
A|---------------------------------------------------|
E|---------------------------------------------------|

(Lyrics resume)
e|-18h20p18-20-18-16\15-16-15-------------------|-----------------------------------|
B|---------------------------18-16-18-16--------|-/11\9-11--9---9-------------------|
G|---------------------------------------/17\9--|------------10--10p8-\7h8-7~-------|
D|----------------------------------------------|-----------------------------8p6---|
A|----------------------------------------------|-----------------------------------|
E|----------------------------------------------|-----------------------------------|


e|----------------------------------15h16p15--15-16-18p16p15-16p15---|
B|-15h16p15--15-16-16h18p16-15h16h18--------18--------------------18-|
G|---------17--------------------------------------------------------|
D|-------------------------------------------------------------------|
A|-------------------------------------------------------------------|
E|-------------------------------------------------------------------|

          Rhythm Guitar:
e|-/22\---*-----------------------------|
B|--------*-----------------------------|
G|--------*-----------------------------|
D|--------*---------8-8-8-8-6-6-6-6-----|
A|--------*-------------------------8~~-|
E|--------*-6-6-6-6---------------------|

Where Lyrics resume: 
"I lost it all and all that was left
Beat of my heart, air of my breath
Better late than never"



Play Bridge again with this Lead part-
e|------------------|------------------|-----------------|-------------------|
B|---------------12-|------------------|-----------------|-12-------13-------|
G|-13~----13---13---|-14~------14--14--|-13--13--13--13--|-------------------|
D|------------------|------------------|-----------------|-------------------|
A|------------------|------------------|-----------------|-------------------|
E|------------------|------------------|-----------------|-------------------|

e|------------------|------------------|-----------------|-------------------|--------------|
B|---------------12-|------------------|-----------------|-12-------13-------|-/17----13\---|
G|-13~--13-----13---|-14~--------14-11-|-13------13--13--|-------------------|--------------|
D|------------------|------------------|-----------------|-------------------|--------------|
A|------------------|------------------|-----------------|-------------------|--------------|
E|------------------|------------------|-----------------|-------------------|--------------|


Ending
e|----------------------|------------------|
B|----------------------|------------------|
G|----------------------|------------------|
D|-4---2--4---2---4---2-|------------------|
A|----------------------|-6--4--3--6--4~---|
E|----------------------|------------------|


Key:
| /  slide up
| \  slide down
| h  hammer-on
| p  pull-off
| ~  vibrato
| b  bend note
| r  release bend
| PH pinch harmonic
| x  Mute note
Добавлено: 03.07.2012
Другие материалы по этой песне:

Страница создана 03.07.2012
http://primanota.ru/311/sun-come-through-chords.htm
Привет, Гость.
Предлагаем пройти революционный курс по гитаре.
Подарок от PrimaNota.Ru, забирай!