PrimaNota.ru - самый крупный в мире бесплатный архив песенных текстов, аккордов, табулатур и нот


311 - Soulsucker - текст песни, таба, бас-таба, видео

Регистрация Запомнить меня
Войти через:  Facebook Google Twitter Vk Yandex Mail.ru

311 - Soulsucker - текст песни, таба, бас-таба, видео

Печатать
Просмотров: 222
Уроки эстрадного вокала в Санкт-Петербурге
Title: Soulsucker
Artist: 311
Album: Omaha Sessions
Tabbed by: Momo

Tuning: 1/2 step down  Eb Ab Db Gb Bb Eb

[clean] 
Riff 1A                     Riff 1B (x8)               Riff 1C
1:-------------------------|--------------------------|------------------------||
2:--7-x-5-xx-7--x-5-x-7-7--|-7-7-x-5-xx-7--x-5-x-7-7--|-7-7-x-5-xx-7--x-5-x-7--||
3:--8-x-6-xx-8h9x-6-x-8-8--|-8-8-x-6-xx-8h9x-6-x-8-8--|-8-8-x-6-xx-8h9x-6-x-8--||
4:--9-x-7-xx-9--x-7-x-9-9--|-9-9-x-7-xx-9--x-7-x-9-9--|-9-9-x-7-xx-9--x-7-x-9--||
5:-------------------------|--------------------------|------------------------||
6:-------------------------|--------------------------|------------------------||

Riff 2 [clean]
1:--7--7-------7--7----7------||
2:--7----7-----7----10---10---||
3:--7------7---7--------------||
4:--9--------9-9--------------||
5:--9----------9--------------||
6:--7----------7--------------||
  let ring--------------------|

Riff 1A
Riff 1C
Riff 2
Riff 1A
Riff 1C

Riff 3 [clean]
1:--4--4-------4-----------------------------||
2:--4----4-----5------7-x-5-xx-7--x-5-x-7\---||
3:--4------4---4------8-x-6-xx-8h9x-6-x-8\---||
4:--6--------6-6------9-x-7-xx-9--x-7-x-9\---||
5:--6----------4-----------------------------||
6:--4----------------------------------------||
  let ring-------|

Fill 1 [clean]     [distortion]
1:----------------|----------------||
2:----------------|----------------||
3:----------------|----------------||
4:-------2-3-4----|----------------||
5:-2-3-4----------|----------------||
6:-------------2--|--------\\------||

Riff 4 [heavy dist.] (x6)
1:------------------------------||
2:------------------------------||
3:------------------------------||
4:-----4---4-5--------4---4-2---||
5:------------------------------||
6:-2--2---2-------2--2---2------||

Riff 5 [heavy dist]
1:----------------------------||
2:----------------------------||
3:----------------------------||
4:-9-9-9-9-9-9-------7-8-9----||
5:-9-9-9-9-9-9-7-8-9----------||
6:-7-7-7-7-7-7----------------||

Riff 4
Riff 5
Riff 4

Riff 6 [heavy dist]
1:---------4----------4-----|-----------------------------||
2:---------4----------5-----|-----------------------------||
3:-------4-4-4--------4-----|-----------------------------||
4:-6--6--6---6-6----6-6-----|-----4---4-5--------2-3-4----||
5:-6--6--------6--4---------|--------------2-3-4----------||
6:-4------------------------|-2--2---2-----------------2--||
  let ring----------------|

Riff 7 [heavy dist] (x6)  Fill 1
1:-----------------------|-----------------||
2:-----------------------|-----------------||
3:------2-2-------5-4----|-----------------||
4:-4-4--2-2--4-4--5-4----|--------2-3-4----||
5:-4-4-------4-4--3-2----|--2-3-4----------||
6:-----------------------|--------------2--||


[clean] 
Riff 1A                     Riff 1B (x6)               Riff 1C
1:-------------------------|--------------------------|------------------------||
2:--7-x-5-xx-7--x-5-x-7-7--|-7-7-x-5-xx-7--x-5-x-7-7--|-7-7-x-5-xx-7--x-5-x-7--||
3:--8-x-6-xx-8h9x-6-x-8-8--|-8-8-x-6-xx-8h9x-6-x-8-8--|-8-8-x-6-xx-8h9x-6-x-8--||
4:--9-x-7-xx-9--x-7-x-9-9--|-9-9-x-7-xx-9--x-7-x-9-9--|-9-9-x-7-xx-9--x-7-x-9--||
5:-------------------------|--------------------------|------------------------||
6:-------------------------|--------------------------|------------------------||

Riff 2 [clean]
1:--7--7-------7--7----7------||
2:--7----7-----7----10---10---||
3:--7------7---7--------------||
4:--9--------9-9--------------||
5:--9----------9--------------||
6:--7----------7--------------||
  let ring--------------------|

Riff 1A
Riff 1C
Riff 2
Riff 1A
Riff 1C

Riff 3 [clean]
1:--4--4-------4--------------------------|----------------||
2:--4----4-----5------7-x-5-xx-7--x-5-x-7-|----------------||
3:--4------4---4------8-x-6-xx-8h9x-6-x-8-|----------------||
4:--6--------6-6------9-x-7-xx-9--x-7-x-9-|-------2-3-4----||
5:--6----------4--------------------------|-2-3-4----------||
6:--4-------------------------------------|-------------2--||
  let ring-------|

Riff 4 [heavy dist.] (x6)
1:------------------------------||
2:------------------------------||
3:------------------------------||
4:-----4---4-5--------4---4-2---||
5:------------------------------||
6:-2--2---2-------2--2---2------||

Riff 5 [heavy dist]
1:----------------------------||
2:----------------------------||
3:----------------------------||
4:-9-9-9-9-9-9-------7-8-9----||
5:-9-9-9-9-9-9-7-8-9----------||
6:-7-7-7-7-7-7----------------||

Riff 4
Riff 5
Riff 4

Riff 6 [heavy dist]
1:---------4----------4-----|-----------------------------||
2:---------4----------5-----|-----------------------------||
3:-------4-4-4--------4-----|-----------------------------||
4:-6--6--6---6-6----6-6-----|-----4---4-5--------2-3-4----||
5:-6--6--------6--4---------|--------------2-3-4----------||
6:-4------------------------|-2--2---2-----------------2--||
  let ring--------------|

Riff 7 [heavy dist] (x4)  Fill 1
1:-----------------------|-----------------||
2:-----------------------|-----------------||
3:------2-2-------5-4----|-----------------||
4:-4-4--2-2--4-4--5-4----|--------2-3-4----||
5:-4-4-------4-4--3-2----|--2-3-4----------||
6:-----------------------|--------------2--||

Ending  [heavy dist]                                           
1:----------------------------------------------------------||
2:----------------------------------------------------------||
3:----------------------------------------------------------||
4:---------------------------------------------2-3--4*--4\--||
5:-2-3-4--------2-3-4--------2-3-4-------2-3-4------4*--4\--||
6:-------0-1-2--------0-1-2--------0-1-2------------2*--2\--||
                                                     * = strum a bunch of times

| \ slide down
| h hammer-on
| x mute note
=================
Добавлено: 26.04.2012
Другие материалы по этой песне:
  • Аккорды и текст

Страница создана 24.04.2012
http://primanota.ru/311/soulsucker-chords.htm
Привет, Гость.
Предлагаем пройти революционный курс по гитаре.
Подарок от PrimaNota.Ru, забирай!