PrimaNota.ru - самый крупный в мире бесплатный архив песенных текстов, аккордов, табулатур и нот


311 - Seems Uncertain - текст песни, таба, видео

Регистрация Запомнить меня
Войти через:  Facebook Google Twitter Vk Yandex Mail.ru

311 - Seems Uncertain - текст песни, таба, видео

Печатать
Просмотров: 141
i noticed that no one tabbed this song yet , and i wanted to know how to play it, so i tabbed it
ne questions e-mail me at thesk8ingwombat@yahoo.com
my AIM is thesk8ingwombat
           

                intro
E|--------------------------------------------------||
B|-2---2---2---2---0---0---0---0--------------------||
G|---1---1---1---1---2---2---2---2------------------||
D|--------------------------------------------------||
A|--------------------------------------------------||
E|--------------------------------------------------||

second part of verse
E|---0----0---------0--------------||
B|---2----2--0----0---0------------||
G|-1-1----1--2----2-----2----------||
D|-2------2--2----2----------------||
A|-0---------0--0------------------||
E|---------------------------------||

chorus
E|-2-2--2---0-0--0-0---------------||
B|-1-1--1---2-2--2-2---------------||
G|-2-2--2---1-1--1-1---------------||
D|-0-0--0---2-2--2-2---------------||
A|----------0-0--0-0---------------||
E|---------------------------------||


post chorus
E|-0-0-0-0-0-0-0-------------------||
B|-2-2-2-2-2-2-2-------------------||
G|-1-1-1-1-1-1-1-------------------||
D|-2-2-2-2-2-2-2-------------------||
A|-0-0-0-0-0-0-0-------------------||
E|----------------(2)--------------||


E|-------------------------------------------------------------0-----||
B|---------4---4---2-4-2-4-5-2-5-2----------4---4--------------0-----||
G|-1-4-1-4---4---4------------------1-4-1-4---4---4--4-2--1----------||
D|-----------------------------------------------------------2-------||
A|-------------------------------------------------------------------||
E|-------------------------------------------------------------------||


E|------------------------------------0--0--0--0~--------------------||
B|---------4---4---2-4-2-4-5-2-5-2----0--0--0--0~------------4~------||
G|-1-4-1-4---4---4--------------------2--1--2--2~----------2---------||
D|------------------------------------------2--1~------1-4-----------||
A|---------------------------------------------2~----2---------------||
E|-------------------------------------------------------------------||


E|-0--0-0-0--0-0-0---0--0-0-0--0-0-0----------------||
B|-2--2-2-2--2-2-2---0--0-0-0--0-0-0----------------||
G|-1--1-1-1--1-1-1---2--2-2-2--2-2-2----------------||
D|-2--2-2-2--2-2-2---2--2-2-2--2-2-2----------------||
A|-0--0-0-0--0-0-0---0--0-0-0--0-0-0----------------||
E|--------------------------------------------------||


E|---------------------------------||
B|-2~--------0-1-2~----------------||
G|-----2~--2-----------------------||
D|---------------------------------||
A|---------------------------------||
E|---------------------------------||
()'s on second time through



E|-2~--0-2-0~--------------------5-7-5-4--2--0------5~----||
B|-------------------------2-3-5---------------3-2--------||
G|-------------2~--2-1-2-4--------------------------------||
D|--------------------------------------------------------||
A|--------------------------------------------------------||
E|--------------------------------------------------------||
Добавлено: 16.05.2012
Другие материалы по этой песне:
  • Аккорды и текст

Страница создана 02.04.2012
http://primanota.ru/311/seems-uncertain-chords.htm
Привет, Гость.
Предлагаем пройти революционный курс по гитаре.
Подарок от PrimaNota.Ru, забирай!