PrimaNota.ru - самый крупный в мире бесплатный архив песенных текстов, аккордов, табулатур и нот


311 - Mindspin - текст песни, таба, бас-таба, видео

Регистрация Запомнить меня
Войти через:  Facebook Google Twitter Vk Yandex Mail.ru

311 - Mindspin - текст песни, таба, бас-таба, видео

Печатать
Просмотров: 300
'Mindspin'
Performed by 311
From the album "Soundsystem" on Capricorn Records
Music by:  C. Sexton
Lyrics by:  N. Hexum & D. Martinez
(c) 1999 Hydroponic Music BMI
---------------
 NOTE: On the album, this is played using a 7-string guitar.
        To play on 6-string guitar, tune guitar down 5 steps (i.e. low
        string tuned to B).

Verse A:
========
   B5       E5 N.C. F#5
1:--------------------------------|
2:--------------------------------|
3:--------------------------------|
4:--------------------------------|
5:-2-2-2-2--7-------9-9-9-9-9-9-9-|
6:-0-0-0-0--5--0-0--7-7-7-7-9-7-7-|

   B5       E5 N.C. F#5      N.C.
1:---------------------------------------|
2:---------------------------------------|
3:---------------------------------------|
4:---------------------------------------|
5:-2-2-2-2--7-------9-9-9-9--------------|
6:-0-0-0-0--5--0-0--7-7-7-7--9-12-9-12\\-|

Verse B:
========
   B5      E5      F#5     G#5
1:---------------------------------|
2:---------------------------------|
3:---------------------------------|
4:---------------------------------|
5:-2-2-2-2-5-5-5-5-7-7-7-7-9-9-9-9-|
6:-0-0-0-0-3-3-3-3-5-5-5-5-7-7-7-7-|

Chorus:
=======
   N.C.
1:-----------------------|----------|
2:-----------------------|----------|
3:-----------------------|----------|
4:-----------------------|----------|
5:-----------------------|----------|
6:-9--12b-9-7-5-5-5-5-7--|--9-7-9-7-|
  |        (x4)        |

Bridge:
=======
[Guitar 1 (w/flanger effect):]

   G#         F#       G5
1:--9----9----7----7------|
2:--9----9----7----7------|
3:-10---10----8----8------|
4:-11---11----9----9---10-|
5:-11---11----9----9---10-|
6:--9----9----7----7----8-|

[Guitar 2:]

   N.C.
1:--------------------------------------|
2:--------------------------------------|
3:--------------------------------------|
4:--------------------------------------|
5:-8h9p8h9p8----------8h9p8h9p8---------|
6:-----------9--4--9------------9--4--9-|

   N.C.
1:--------------------------------------|
2:--------------------------------------|
3:--------------------------------------|
4:--------------------------------------|
5:-6h8p6h8p6----------6h8p6h8p6---------|
6:-----------7--5--7------------7--5--7-|
Добавлено: 06.06.2012
Другие материалы по этой песне:
  • Аккорды и текст

Страница создана 31.03.2012
http://primanota.ru/311/mindspin-chords.htm
Привет, Гость.
Предлагаем пройти революционный курс по гитаре.
Подарок от PrimaNota.Ru, забирай!