PrimaNota.ru - самый крупный в мире бесплатный архив песенных текстов, аккордов, табулатур и нот


311 - Grassroots (album) - бас-таба, видео

Регистрация Запомнить меня
Войти через:  Facebook Google Twitter Vk Yandex Mail.ru

311 - Grassroots (album) - бас-таба, видео

Печатать
Просмотров: 150
I have simply compiled these for convenience. I am not the author of any of
these, so don't send me corrections. I have included the authors name, if
possible, next to all song titles.

---Homebrew - Jason Vick-----------------------------------------------------------------

Riff 1:
=======
G:-----
D:-----
A:-----
E:--0--

Riff 2A:
========
G:---------------|
D:---------------|
A:---------------|
E:-0--0--0--0--1-|

Riff 2B: (played for 1 measure)
===============================
G:---------------------|
D:---------------------|
A:---------------------|
E:-0--0--0--0--1-1-1-1-|

Chorus 1A:
==========
G:---------------------|
D:---------------------|
A:-0--3--5--7--5--3--5-|
E:---------------------|

Chorus 1B:
==========
G:-----------------------|
D:------------------5--7-|
A:-0--3--5--7--5---------|
E:-----------------------|

Chorus 1C:
==========
G:--------------------|
D:--------------------|
A:-0--3--5--7--5--3-3-|
E:--------------------|

Chorus 2A:
==========
G:-----------------------------------|
D:-----------------------------------|
A:---------------3-3-3--2-2-2--0-0-0-|
E:-3-3-3-3-3-------------------------|

Chorus 2B:
==========
G:---------------------------------------------------------------|
D:---------------------------------------------------------------|
A:---------------3-3-3--2-2-2--0-0-0---------------------3--2--0-|
E:-3-3-3-3-3---------------------------------3--5---3-3----------|

Riff 3:
=======
G:------------------------------|
D:------------------------------|
A:-----7-7--5-5-7-5-7-----------|
E:-0--------------------5--7--0-|

Ending:
=======
G:--------------------------|
D:--------------------------|
A:--3---2---0---------------|
E:----------------3---5---0-|

Song structure:
===============
---> Rest 1 measure
---> Play Riff 1
---> Play Riff 2a
---> Play Riff 2b (x1)
---> Play Riff 2a
---> Play Chorus 1a
---> Play Chorus 1b (x1)
---> Play Chorus 1a
---> Play Chours 1c (x1)
---> Play Chorus 2a
---> Play Chorus 2b
---> Play Chorus 2a
---> Play Riff 3
---> Play Riff 2a
---> Play Riff 2b (x1)
---> Play Riff 2a
---> Play Chorus 1a
---> Play Chorus 1b (x1)
---> Play Chorus 1a
---> Play Chorus 1c (x1)
---> Play Chorus 2a (x1)
---> Play Chorus 2b (x1)
---> Play Chorus 2a (x1)
---> Play Ending (x1)


---Lucky - Jeremy Daw--------------------------------------------------------------------

Intro:
======
G:-------------------------------------|
D:-------------------------------------|
A:------------------------4--2---------|
E:-0---0---0---0---0---0-------4--2--4-|
B:-------------------------------------|

Riff 1:
=======
G:----------------------|
D:--------1-2-1-2-1-----|
A:------4-----------4-4-|
E:-2-2------------------|
B:----------------------|

Riff 2:
=======
G:----------------------------|
D:----------------------------|
A:-0-0-0--5-5--5--------------|
E:----------------3-3-3-3-3-3-|
B:----------------------------|

Riff 3:
=======
G:------------------------------------|
D:------------------------------------|
A:------------------------------------|
E:-0-0-0-0-0-0-0-0-0-0-0-0--3-5-5-6-7-|
B:------------------------------------|

G:-----------------------------------------|
D:-----------------------------------------|
A:-----------------------------------------|
E:-0-0-0-0-0--2h3-2h3--0-0-0-0-0-3-5-5-6-7-|
B:-----------------------------------------|

Chorus:
=======
G:--------------------------------|
D:--------------------------------|
A:-9---------9--7-7-6-----6-7-8-9-|
E:------6--9----------7-----------|
B:---7------------------7---------|


---Nutsymptom - Justin Reynolds----------------------------------------------------------

Riff 1:
=======
G:-----------------------------------------------------------------------|
D:---7---5---4------------------------x----------------------------x-----|
A:------------------------------------x----------------------------x-----|
E:-x---x---x---2---3-0--x-0--x-0--x-0-x-x-2---3-0--x-0--x--0--x--0-x-x-2-|
B:-----------------------------------------------------------------------|

Riff 2:
=======
G:--------------------------------------------------------------0--|
D:-----------------------------------------------------------------|
A:-----------------------------------------------------------------|
E:-5-5-5-5-----5-5-5-5-----5-5-5-5------5-5-5-5----5-5-5-5--x----2-|
B:-----------------------------------------------------------------|

Riff 3:
=======
G:-----------------------------------------------------------------|
D:---0---1---2-------6-7-9-7-6-7-6----0---3---4--------6-7-9-7-6-7-|
A:-2---3---4---5--7-----------------2---1---2---5--7---------------|
E:-----------------------------------------------------------------|
B:-----------------------------------------------------------------|

Solo [slap, of course]:
=======================
G:---x-7-9--------7---------|
D:--------------------------|
A:----------0h4-x----5--7---|
E:------------------------x-|
B:-x----------------------x-|

G:-9-7-9-------7------|
D:--------------------|
A:-------0h4-x---5--7-|
E:--------------------|
B:--------------------|

G:---x-7-9--------7----------|
D:---------------------------|
A:----------0h4-x----5--7----|
E:-------------------------x-|
B:-x-----------------------x-|

G:---7-9-9--------7-------|
D:------------------------|
A:----------0h4-x----5--7-|
E:------------------------|
B:-x----------------------|

G:---9-9-9---------7-------|
D:-------------------------|
A:-----------0h4-x----5--7-|    [repeat solo as needed]
E:-------------------------|
B:-------------------------|


---8:16AM – rhill555---------------------------------------------------------------------

Intro:                                                   This is tough
G|---------------------------------------------------------x----x----0--|
D|------0-2------------------------------0-2----------------------------|
A|--2-2----------------------0h2-3-3-2-2--------------------------------|
E|------------0~--2-3-5-3-2--------------------0~--2-3--0-x-x0-x-x0-x---|
B|----------------------------------------------------------------------|
                                                        S SPSS SPSS SP

G|----------------------------------------------------------------|
D|------0-2------------------------------0-2----------------------|
A|--2-2----------------------0h2-3-3-2-2--------------------------|
E|------------0~--2-3-5-3-2--------------------0~--2-3---3-3-2-2--|
B|----------------------------------------------------------------|

Verse 1:
G|-------------------------------------------------------------------------|
D|-------------------------------------------------------------------------|
A|------------3-x-5----------3-x-5------------5-x-7----------5-x-7--9-7----|
E|-0--0~--3-5--------0~--3-5--------------5-7------------5-7------------9--|
B|---------------------------------3--7~-------------7~--------------------| (x2)

G|----------------------------------------------------------------------|
D|----------------------------------------------------------------------|
A|----------------------------------------------------------------------|
E|------3-5-3------------3-5-3------------5-7-5------------5-7-5--------|
B|--3h5-------5-3-5--3h5-------5-3-5--5h7-------7-5-7--5h7-------7-5-7--|

G|----------------------------------------------------------------------|
D|----------------------------------------------------------------------|
A|----------------------------------------------------------------------|
E|------3-5-3------------3-5-3---------------5-7-5---------------5-7-5--|
B|--3h5-------3--5---3h5-------3h5-3--5--5h7-------5h7-5--7--5h7--------|

Chorus:
G|---------|
D|--5------|
A|----7-4--|
E|---------|
B|---------|

G|-------------------------------------------------------------------------|
D|-----7-----------7---7-7--7------------2--4--2--0-2---5--5-5--5-3-0-0-2--|
A|--0-----4-4-5-7----0---------4-5-7---------------------------------------|
E|------------------------------------3---------------3--------------------|
B|-------------------------------------------------------------------------| (x4)

G|-----------------------------------------------------------------|
D|-----7-----------7---7-7--7------------2--4--2--0-2---5--5-5--5--|
A|--0-----4-4-5-7----0---------4-5-7-------------------------------|
E|------------------------------------3---------------3------------|
B|-----------------------------------------------------------------|

Verse 2:
G|---------------------------------------------------------x----x----0--|
D|------0-2------------------------------0-2----------------------------|
A|--2-2----------------------0h2-3-3-2-2--------------------------------|
E|------------0~--2-3-5-3-2--------------------0~--2-3--0-x-x0-x-x0-x---|
B|----------------------------------------------------------------------|
                                                        S SPSS SPSS SP

G|----------------------------------------------------------------|
D|------0-2------------------------------0-2----------------------|
A|--2-2----------------------0h2-3-3-2-2--------------------------|
E|------------0~--2-3-5-3-2--------------------0~--2-3---3-3-2-2--|
B|----------------------------------------------------------------|

G|-------------------------------------------------------------------------|
D|-------------------------------------------------------------------------|
A|------------3-x-5----------3-x-5------------5-x-7----------5-x-7--9-7----|
E|-0--0~--3-5--------0~--3-5--------------5-7------------5-7------------9--|
B|---------------------------------3--7~-------------7~--------------------|

G|----------------------------------------------------------------|
D|----------------------------------------------------------------|
A|----------------------------------------------------------------|
E|------3-5-3------------3-5-3------------5-7-5------------5-7-5--|
B|--3h5-------5-3-5--3h5-------5-3-5--5h7-------7-5-7--5h7--------|

Chorus:
G|---------|
D|--5------|
A|----7-4--|
E|---------|
B|---------|

G|-------------------------------------------------------------------------|
D|-----7-----------7---7-7--7------------2--4--2--0-2---5--5-5--5-3-0-0-2--|
A|--0-----4-4-5-7----0---------4-5-7---------------------------------------|
E|------------------------------------3---------------3--------------------|
B|-------------------------------------------------------------------------| (x4)

G|-----------------------------------------------------------------|
D|-----7-----------7---7-7--7------------2--4--2--0-2---5--5-5--5--|
A|--0-----4-4-5-7----0---------4-5-7-------------------------------|
E|------------------------------------3---------------3------------|
B|-----------------------------------------------------------------|

Outro:
G|--------------------------------------------|
D|--------------------------------------------|
A|-------------------------------5-7-5--------|
E|--1~-----1-3~----3--5-5--0-5-7-------7-5-3--|
B|--------------------------------------------|

G|--------------------------------------------|
D|--------------------------------------------|
A|--------------------------------------------|
E|--1~-----1-3~----3--5-5--0-5-0-5-0-5-0-5-0--|
B|--------------------------------------------|

G|--------------------------------------------------------|
D|--------------------------------------------------------|
A|--------------------------------------------------------|
E|--1-1-1-1-1-1-1-1-3-3-3-3-3-3-3-5--5--5--5-5-5-5-5-5-5--|
B|--------------------------------------------------------|

G|---------------------|
D|---------------------|
A|---------------------|
E|--1~------3~-----5~--| <--- It sounds like there is a very low note to go
B|---------------------|      with the A

---Omaha Stylee - Jeremy Daw-------------------------------------------------------------

Intro:
======
G:---------------|
D:---------------|
A:-2--3----------|
E:-------3--0--5-|

Riff 1:
=======
G:--------------------------------------------------------------|
D:--------1-----------1-------------------1--------1------------|
A:------3---5-------3---5--5--3--3------5---3----5---5--3--3--3-|
E:-5-5----------5-5-----------------5-5--------5----------------|

Riff 2:
=======
G:-----------------|
D:-----------------|
A:---0---0-2-3-2-0-|
E:-1---1-----------|

Riff 3:
=======
G:---------------------|
D:---------------------|
A:---------------------|
E:-0-5-0-3-5-0-5-0-3-0-|

Riff 4:
=======
G:-------------------------------------------|
D:-------------------------------------------|
A:-------------------------------------------|
E:-3-3-3-3-3-3-3-3-3-3-3-3-5-3-5-3-5-3-5-3-5-|

Riff 5:
=======
G:--------------------------------------------------|
D:-----3-5-2----------------------------------3-5-2-|
A:-3-5-------3--3--3-------------3-3-3-3-3--5-------|
E:--------------------1-1-1-1-1---------------------|


Riff 6:
=======

G:--------------------------------------------------|
D:--------------------------------------------------|
A:--------------------------------------------------|
E:-0--3--0--3-4-5--5-3-2-3-0-2---0--3-0-3-4-5--3--3-|

Riff 7:
=======
G:-------------------------------------------------------------|
D:-------------------------------------------------------------|
A:-------------------------------------------------------------|
E:-2-2-2-2-5-5-5-5-4-4-4--4-4--4-2-2-2-2-5-5-5-5-4-4-4--4-4--4-|

Riff 8:
=======
G:--------------------------------------|
D:-2------------------------------------|
A:----5--2-5---2---2--------------------|
E:---------------5----5-3-5-3-2-3-2-0-2-|

---Applied Science - Jeremy Daw----------------------------------------------------------

Riff 1:
=======
G:----------------------|
D:----------------------|
A:----------------------|
E:-3-1--1-1-3-3-1-3-3-3-|
B:----------------------|

Riff 2:
=======
G:-----------------------------|
D:-3--1-------1--------------1-|
A:-------4--1-----------1h4----|
E:----------------3--4---------|
B:-----------------------------|

Riff 3:
=======
G:-----------------------|
D:-----------------------|
A:-----------------------|
E:-2-2-2-2-2---1-1-1-1-1-|
B:-----------------------|

Riff 4:
=======
G:--------------------------------|
D:--------------------------------|
A:--------------------------------|
E:-4-4--4-4-4-4-4--2-2--2-2-2-2-2-|
B:--------------------------------|

Riff 5:
=======
G:----------------------|
D:----------------------|
A:----------------------|
E:-1--1-1--1-1-1-1--1-1-|
B:----------------------|

End Riff:
=========
G:----------------------------|
D:----------------------------|
A:--------------------------1-|
E:-2-2-2-2-1-1-1-1-2-2-2-2--1-|
B:----------------------------|


---Taiyed – Jeff – Cseger----------------------------------------------------------------
 [Version 1:]

There's two parts: A is with the cool guitar part, B is with the organ
   part:

Riff A:
=======

G:-------4--2---------------|
D:---0--------4--3------4---|
A:-2---2-----------2--3---3-|
E:--------------------------|

Riff B:
=======
G:-----------------------|
D:-----------------------|
A:---------2-0---5-6-5-6-|
E:-0-2-3-4-----4---------|


[Version 2:]

1:-------4----2------------------|
2:----0---------4---3--2---------|
3:-2----------------------5--2-0-|
4:-------------------------------|
5:-------------------------------|

1:-----------------------------|
2:-----------------------------|
3:----------0--2--0-----5-4--2-|
4:-0---2--4----------4---------|
5:-----------------------------|

---Silver – unregistered-----------------------------------------------------------------

Intro:
G|-----------------------|
D|-----------------------|
A|--------2-------4-5-4--|
E|--4-4-4----2--2--------|
B|-----------------------| (x4)

Verses:
G|-----------------------|
D|-----------------------|
A|--------2-------4-5-4--|
E|--4-4-4----2--2--------|
B|-----------------------| (x4)

G|------------------------------------------------------------------------------|
D|------------------------------------------------------------------------------|
A|--4-2-4-2-4---2------4-2-4-2-4---2-4------4-2-4-2-4---2------4-2-4-2-4---2-4--|
E|------------4---2--------------4--------------------4---2--------------4------|
B|------------------------------------------------------------------------------|

G|------------------------------------------------------------------------------|
D|------------------------------------------------------------------------------|
A|--4-2-4-2-4---2------4-2-4-2-4---2-4------4-2-4-2-4---2------4-2-4-2-4-5-2----|
E|------------4---2--------------4--------------------4---2------------------3--|
B|------------------------------------------------------------------------------|

G|--------------------------------------------------------------------|
D|--------------------------------------------------------------------|
A|--------------------------------------------------------------------|
E|--1--0-0-1-1--------1--0-0-1-1--------1--0-0-1-1--1-3---1--0-0-1-1--|
B|--------------------------------------------------------------------|

G|--------------------------------------------------------------------------|
D|--------------------------------------------------------------------------|
A|--------------------------------------------------------------------------|
E|--1--0-0-1-1-1--1---1-1--0-0-1-1-1--1---1-1--0-0-1-1--1-3---1-1--0-0-1-1--|
B|--------------------------------------------------------------------------|

G|-----------------------|
D|-----------------------|
A|--------2-------4-5-4--|
E|--4-4-4----2--2--------|
B|-----------------------| (x4)

G|-----------------------|
D|--1-2-1----------------|
A|---------2------4-5-4--|
E|-----------2--2--------|
B|-----------------------|

G|-----------------------|
D|-----------------------|
A|--------2-------4-5-4--|
E|--4-4-4----2--2--------|
B|-----------------------| (x3)

G|------------------------------------------------------------------------------|
D|------------------------------------------------------------------------------|
A|--4-2-4-2-4---2------4-2-4-2-4---2-4------4-2-4-2-4---2------4-2-4-2-4---2-4--|
E|------------4---2--------------4--------------------4---2--------------4------|
B|------------------------------------------------------------------------------|

G|------------------------------------------------------------------------------|
D|------------------------------------------------------------------------------|
A|--4-2-4-2-4---2------4-2-4-2-4---2-4------4-2-4-2-4---2------4-2-4-2-4-5-2----|
E|------------4---2--------------4--------------------4---2------------------3--|
B|------------------------------------------------------------------------------|

G|----------------------------------------------------------------------|
D|----------------------------------------------------------------------|
A|----------------------------------------------------------------------|
E|--1--0-0-1-1--------1--0-0-1-1--------1--0-0-1-1--1-3---1-1--0-0-1-1--|
B|----------------------------------------------------------------------|

G|--------------------------------------------------------------------------|
D|--------------------------------------------------------------------------|
A|--------------------------------------------------------------------------|
E|--1--0-0-1-1-1--1---1-1--0-0-1-1-1--1---1-1--0-0-1-1--1-3---1-1--0-0-1-1--|
B|--------------------------------------------------------------------------|

Bridge:
G|-------------------------------|
D|-------------------------------|
A|----------5--------------------|
E|--0-5-7-5---5-7-0-5-7-0-7-0-5--|
B|-------------------------------| (x8)

Outro:
G|-----------------------------------------------------|
D|-----------------------------------------------------|
A|-----------------------------------------------------|
E|--5--5--3-----5--5--3--6-----5--5--3-----5--5--3--6--|
B|-----------------------------------------------------|

G|-----------------------------------------------------|
D|-----------------------------------------------------|
A|-----------------------------------------------------|
E|--5--5--3-----5--5--3--6-----5--5--3-----5--5--3--6--|
B|-----------------------------------------------------|

G|---------------------|
D|---------------------|
A|---------------------|
E|--5--3--6---1--2--3--|
B|---------------------|


---Grassroots – Unregistered-------------------------------------------------------------

Verse 1:                                        _____
G|---------------------------------------------|    ------ \
D|---------------------------------------------|     ----- \
A|----------0----1-/3------------0-------1-/3--|      ---- \
E|--1-1-0-1---1--------1-1-1-0-1---1-0-1-------|       --- \
B|---------------------------------------------|        -- \
                                                         (x2)
G|------------------------------------------------------- \          /
D|------------------------------------------------------- \         /
A|----------0----1-/3----3---2---1---0--1-/3------------- \        /
E|--1-1-0-1---1--------1--------------------------------- \       /
B|------------------------------------------------------- \_____/

G|---------------------------------------------|
D|---------------------------------------------|
A|----------0----1-/3------------0-------1-/3--|
E|--1-1-0-1---1--------1-1-1-0-1---1-0-1-------|
B|---------------------------------------------|

G|--------------------------------------|
D|--------------------------------------|
A|----------0----1-/3----3---2---1---0--|
E|--1-1-0-1---1--------1----------------|
B|--------------------------------------|

Pre-Chorus:
G|-----------------------------------------------------------------|
D|-----------------------------------------------------------------|
A|-----------------------------------------------------------------|
E|--3-3--x3--6-6--6-6-6--3-3--x3--6-6--6-6-6--3-3--x3--6-6--6-6-6--|
B|-----------------------------------------------------------------|

G|----------------------5--|
D|-------------------------|
A|--------------3-x1h3-x---|
E|--4--4--4--4-------------|
B|-------------------------|
                S SS   SP
G|-----------------------------------------------------------------|
D|-----------------------------------------------------------------|
A|-----------------------------------------------------------------|
E|--3-3--x3--6-6--6-6-6--3-3--x3--6-6--6-6-6--3-3--x3--6-6--6-6-6--|
B|-----------------------------------------------------------------|

G|----------------------5-----------------------------5--|
D|-------------------------------------------------------|
A|--------------3-x1h3-x--------------xhxxxhxxxhxxxhxx---|
E|--4--4--4--4-------------4--4--4--4--------------------|
B|-------------------------------------------------------|
                S SS   SP             S SSS SSS SSS SSP

Chorus:
G|------------------------------------------------|
D|------------------------------------------------|
A|--1-/3------------0----1-/3------------0--------|
E|--------1-1-1-0-1---1--------1-1-1-0-1---1-0-1--|
B|------------------------------------------------| (x2)

Verse 2:
G|----------------------------------------------------|
D|----------------------------------------------------|
A|---------------------------3-3-3-3-1-3--3--3-3-1-3--|
E|--3-3-3-3-1-3--3--3-3-1-3---------------------------|
B|----------------------------------------------------|

G|----------------------------------------------------|
D|---------------5--5---------------------------------|
A|---------------------------3-3-3-3-1-3--3-3-x1-3-1--|
E|--3-3-3-3-1-3------x1-3-1---------------------------|
B|----------------------------------------------------|

G|--------------------------------------------------|
D|--------------------------------------------------|
A|---------------------------1----1-0-1-1h3p1-x1-0--|
E|--1----1-0-1---1--1-1-0-1-------------------------|
B|--------------------------------------------------|

G|---------------------------------|
D|---------------------------------|
A|------------------------------1--|
E|--3-----3-1-3--3--3-3-1-3--------|
B|---------------------------2-----|

Break:
G|----------------------------------------------------|
D|---------4---------4-------------2------------------|
A|--5----------5-------5-----3--------3------3--------|
E|-----5---------5-------5-----3--------3------3-3-3--|
B|----------------------------------------------------|

G|-------------------------------------------------|
D|---------4---------4-------------2---------------|
A|--5----------5-------5-----3--------3------------|
E|-----5---------5-------5-----3--------3-2-3-0-0--|
B|-------------------------------------------------|

G|----------------------------------------------------|
D|--4-------4---------4------2-------2---------2------|
A|----5---------5-------5------3--------3--------3----|
E|------5---------5-------5------3---------3-------3--|
B|----------------------------------------------------|

G|----------------------------------------------------|
D|--4-------4---------4------2-------2----------------|
A|----5---------5-------5------3--------3-------------|
E|------5---------5-------5------3---------3-2-3-0-3--|
B|----------------------------------------------------|

Verse 3:
G|------------------------------------------------|
D|------------------------------------------------|
A|--1-/3------------0----1-/3------------0--------|
E|--------1-1-1-0-1---1--------1-1-1-0-1---1-0-1--|
B|------------------------------------------------|

G|----------------------------------------------|
D|----------------------------------------------|
A|--1-/3------------0----1-/3----3---2---1---0--|
E|--------1-1-1-0-1---1--------1----------------|
B|----------------------------------------------|

G|------------------------------------------------|
D|------------------------------------------------|
A|--1-/3------------0----1-/3------------0--------|
E|--------1-1-1-0-1---1--------1-1-1-0-1---1-0-1--|
B|------------------------------------------------|

G|----------------------------------------------|
D|----------------------------------------------|
A|--1-/3------------0----1-/3----3---2---1---0--|
E|--------1-1-1-0-1---1--------1----------------|
B|----------------------------------------------|

G|-----------------------------------------------------------------|
D|-----------------------------------------------------------------|
A|--1-/3---------------------------1-/3----------------------------|
E|-------1-1--1-1--1-1--1-1--1-1-1------1-1--1-1--1-1--1-1--1-1-1--|
B|-----------------------------------------------------------------|

G|--------------------------------------------------------|
D|--------------------------------------------------------|
A|--1-/3---------------------------1-/3----3---2---1---0--|
E|-------1-1--1-1--1-1--1-1--1-1-1-------1----------------|
B|--------------------------------------------------------|

Pre-Chorus:
G|-----------------------------------------------------------------|
D|-----------------------------------------------------------------|
A|-----------------------------------------------------------------|
E|--3-3--x3--6-6--6-6-6--3-3--x3--6-6--6-6-6--3-3--x3--6-6--6-6-6--|
B|-----------------------------------------------------------------|

G|----------------------5--|
D|-------------------------|
A|--------------3-x1h3-x---|
E|--4--4--4--4-------------|
B|-------------------------|
                S SS   SP
G|-----------------------------------------------------------------|
D|-----------------------------------------------------------------|
A|-----------------------------------------------------------------|
E|--3-3--x3--6-6--6-6-6--3-3--x3--6-6--6-6-6--3-3--x3--6-6--6-6-6--|
B|-----------------------------------------------------------------|

G|----------------------5-----------------------------5--|
D|-------------------------------------------------------|
A|--------------3-x1h3-x--------------xhxxxhxxxhxxxhxx---|
E|--4--4--4--4-------------4--4--4--4--------------------|
B|-------------------------------------------------------|
                S SS   SP             S SSS SSS SSS SSP

Chorus:
G|------------------------------------------------|
D|------------------------------------------------|
A|--1-/3------------0----1-/3------------0--------|
E|--------1-1-1-0-1---1--------1-1-1-0-1---1-0-1--|
B|------------------------------------------------| (x2)

Verse 2:
G|----------------------------------------------------|
D|----------------------------------------------------|
A|---------------------------3-3-3-3-1-3--3--3-3-1-3--|
E|--3-3-3-3-1-3--3--3-3-1-3---------------------------|
B|----------------------------------------------------|

G|----------------------------------------------------|
D|---------------5--5---------------------------------|
A|---------------------------3-3-3-3-1-3--3-3-x1-3-1--|
E|--3-3-3-3-1-3------x1-3-1---------------------------|
B|----------------------------------------------------|

G|--------------------------------------------------|
D|--------------------------------------------------|
A|---------------------------1----1-0-1-1h3p1-x1-0--|
E|--1----1-0-1---1--1-1-0-1-------------------------|
B|--------------------------------------------------|

G|---------------------------------|
D|---------------------------------|
A|------------------------------1--|
E|--3-----3-1-3--3--3-3-1-3--------|
B|---------------------------2-----|

Break/Outro:
G|----------------------------------------------------|
D|---------4---------4-------------2---------------5--|
A|--5----------5-------5-----3--------3------3--------|
E|-----5---------5-------5-----3--------3------3-3----|
B|----------------------------------------------------|

G|-------------------------------------------------|
D|---------4---------4-------------2---------------|
A|--5----------5-------5-----3--------3------------|
E|-----5---------5-------5-----3--------3-2-3-0-3--|
B|-------------------------------------------------|

G|----------------------------------------------------|
D|--4-------4---------4------2-------2---------2------|
A|----5---------5-------5------3--------3--------3----|
E|------5---------5-------5------3---------3-------3--|
B|----------------------------------------------------|
                                                       _______
G|----------------------------------------------------|      ------ \
D|--4-------4---------4------2-------2----------------|       ----- \
A|----5---------5-------5------3--------3-------------|        ---- \
E|------5---------5-------5------3---------3-2-3-0-3--|         --- \
B|----------------------------------------------------|          -- \
                                                                 (x2)
G|---------------------------------------------------------------- \           /
D|--4-------4---------4------2-------2---------2------------------ \          /
A|----5---------5-------5------3--------3--------3---------------- \         /
E|------5---------5-------5------3---------3-------3-------------- \        /
B|---------------------------------------------------------------- \______/

G|-----------------------------------------------------|
D|--4-------4---------4--------------------------------|
A|----5---------5-------5--------------------10-10-10--|
E|------5---------5-------5---6~----7~---9~------------|
B|-----------------------------------------------------|

---Salsa – Unregistered------------------------------------------------------------------

Nick Verse:
G|---------------------------------|
D|---------------------------------|
A|---------------------------------|
E|--0--2-0-2--0-3-3-3-3-4-4-4-4/7--|
B|---------------------------------| (x4)

G|-----------------------------------------------------|
D|-----------------------------------------------------|
A|----------6-6-6--------------------------------------|
E|--4-4-4-----------4-4-4--0-1-2-2----0-1-2-2---0-1-2--|
B|-----------------------------------------------------| (x2)

G|---------------------------------|
D|---------------------------------|
A|---------------------------------|
E|--0--2-0-2--0-3-3-3-3-4-4-4-4/7--|
B|---------------------------------| (x4)

SA Verse:
G|-----------------------------------------------------|
D|-----------------------------------------------------|
A|----------6-6-6--------------------------------------|
E|--4-4-4-----------4-4-4--0-1-2-2----0-1-2-2---0-1-2--|
B|-----------------------------------------------------| (x2)

G|-----------------------------|
D|----8------------------------|
A|--8---8-6--------------------|
E|----------9-9---8-9-8-7-6-6--|
B|-----------------------------| (x3)

G|-------------------------------|
D|----8--------------------------|
A|--8---8-6-------------------7--|
E|----------9-9---8-9-8-7-6-6----|
B|-------------------------------|

G|---------------------------|
D|---------------------------|
A|--4---2-2-2h4-4---4-4-4p2--|
E|----4-----------4----------|
B|---------------------------|

G|---------------------------|
D|--------------------6-6\4--|
A|--4---2-2-2h4-4---4-4-4\2--|
E|----4-----------4----------|
B|---------------------------| (x6)

G|---------------------------|
D|---------------------------|
A|--4---2-2-2h4-4---4-4-4p2--|
E|----4-----------4----------|
B|---------------------------|

G|---------------------------------|
D|---------------------------------|
A|---------------------------------|
E|--0--2-0-2--0-3-3-3-3-4-4-4-4/7--|
B|---------------------------------| (x4)

G|-----------------------------------------------------|
D|-----------------------------------------------------|
A|----------6-6-6--------------------------------------|
E|--4-4-4-----------4-4-4------------------------------|
B|-------------------------5-6-7-7----5-6-7-7---5-6-7--| (x2)

G|-----------------------------|
D|----8------------------------|
A|--8---8-6--------------------|
E|----------9-9---8-9-8-7-6-6--|
B|-----------------------------| (x3)

G|-------------------------------|
D|----8--------------------------|
A|--8---8-6-------------------7--|
E|----------9-9---8-9-8-7-6-6----|
B|-------------------------------|

G|---------------------------|
D|---------------------------|
A|--4---2-2-2h4-4---4-4-4p2--|
E|----4-----------4----------|
B|---------------------------| (x4)

G|--------------------------18-18-18\16--|
D|--------------------------16-16-16\14--|
A|--16----14-14-14h16-16-----------------|
E|-----16----------------16--------------|
B|---------------------------------------| (x2)

G|---------------------------|
D|---------------------------|
A|--4---2-2-2h4-4---4-4-4\2--|
E|----4-----------4----------|
B|---------------------------| (x2)

  You'll probably just want to make this up but end on a D
G|---------------------------------------------|
D|---------------------------------------------|
A|---------------------------------------------|
E|---------------------------------------------|
B|--/15-15\10\2-2///22\\/\/15/17/21\20\17\15~--|

---Lose – Kirk---------------------------------------------------------------------------

PART 1
======
   Dm7                                   Bbm
G|---------------------------------------------------------------------------|
D|---------------------------------------------------------------------------|
A|-5-----0---3---5--5--5-----5--7--8--7--------------------1-----------------|
E|---------------------------------------6--6---1---1---1------1---1---1-----|
(I can see it now.......)

 Dm7                                   Bbm
G|---------------------------------------------------------------------------|
D|---------------------------------------------------------------------------|
A|-5-----0---3---5--5--5-----5--7--8--7--------------------1-----------------|
E|---------------------------------------6------1---1---1------1---1---1-----|

PART 2
======
   Eb                              F#                         Dm7
G|-------------------------8------------------------3---------------------------|
D|-----------5-5-5--8--8-8----8-5-----4--4-----4--6-----6--4--------------------|
A|-6--6-6-6------------------------4-------4----------------0-5-5-5--0--3--5-5--|
E|------------------------------------------------------------------------------|
(Though all we've been through....)

   Dm7                                               A
G|------------------------------------7-------------------|
D|---------------------------0-----7-----7-----0----------|
A|-5--5-5-5----5--7--8--7-------8-----------8--------0----|
E|--------------------------------------------------------|
(I'm gonna lose you....)

PART 3
======
   F                                     G
G|--------------------------------------------------------------------------------------|
D|-333----------------333----------------555--------555---------555---------555---------|
A|-----3--3---------------3--3----------------5---5------5---5-------5---5-------5---5--|
E|-----------1---1--------------1---1---------------------------------------------------|
(Think of all the good times...)
   F                                     G
G|--------------------------------------------------------------------------------------|
D|-333----------------333----------------555--------555---------555---------555---------|
A|-----3--3---------------3--3----------------5---5------5----5------5---5-------5---5--|
E|-----------1---1--------------1---1---------------------------------------------------|

   A                   Bb                  A                   Bb           A
G|----------------------------------------------------------------------------------|
D|----------------------------------------------------------------------------------|
A|----------------------------------------------------------------------------------|
E|-5---5---5-5---5---5-6---6---6-6---6---6-5---5---5-5---5---5-6---6---6-6--5-------|
(This is what I asked for...)

PART 4
======
G|-----------------------------------------------------|
D|-----------------------------------------------------|
A|-0--3--5--------0--3--5-------1--1-----------1--1----|  repeat x 2
E|---------------------------1--------------1----------|

Here's how it goes together:

Intro
=====
Part 1 x 2
Part 2

Verse 1 and 2
=============
Part 1 x 2
Part 2

Chorus
======
Part 3

Guitar Solo
===========
Part 1 (Don't play the first note - just skip to the A)
Part 2
Part 4
Part 2
Part 1
Part 2 (But skip several of the notes - listen to the song)
Part 3


---Six – Unregistered--------------------------------------------------------------------

Verse 1:
G|--------------------------------|
D|--------------------------------|
A|--------4-5--4------4--5--4-----|
E|--3--2---------2-3-----------3--|
B|--------------------------------|

G|-----------------------------|
D|-----------------------------|
A|-----4-5--4------4--5--4-----|
E|--2---------2-3-----------3--|
B|-----------------------------| (x4)

G|-------------------------------|
D|-------------------------------|
A|----4--5--7--5--4-----4--5--4--|
E|--5----------------3-----------|
B|-------------------------------|

G|--------------------------------|
D|--------------------------------|
A|--------4-5--4------4--5--4-----|
E|--3--2---------2-3-----------3--|
B|--------------------------------|

G|-------------------------------|
D|-------------------------------|
A|----4--5--7--5--4-----4--5--4--|
E|--5----------------3-----------|
B|-------------------------------|

G|--------------------------------|
D|--------------------------------|
A|--------4-5--4------4--5--4-----|
E|--3--2---------2-3-----------3--|
B|--------------------------------|

Chorus:
G|------------------------------------------------------------|
D|--------------------------------------------------0--0-0-0--|
A|---------------------3-3-3-3--------------------------------|
E|--0-1-0-3--3---3-0-1-----------0-1-0-3--3---3-0-1-----------|
B|------------------------------------------------------------|

G|---------------------------------------------------|
D|---------------------------------------------------|
A|---------------------3--3-3-3----------------------|
E|--0-1-0-3--3---0-1-0-----------0-1-0-3--3---1---5--|
B|---------------------------------------------------|

Verse 2:
G|--------------------------------|
D|--------------------------------|
A|--------4-5--4------4--5--4-----|
E|--3--2---------2-3-----------3--|
B|--------------------------------|

G|-----------------------------|
D|-----------------------------|
A|-----4-5--4------4--5--4-----|
E|--2---------2-3-----------3--|
B|-----------------------------| (x2)

G|-----------------------------|
D|-----------------------------|
A|-----4-5--4------------------|
E|--2---------2-3--3-3--3-3-3--|
B|-----------------------------|

G|-----------------------------|
D|-----------------------------|
A|-----4-5--4------4--5--4-----|
E|--2---------2-3-----------3--|
B|-----------------------------| (x4)

G|-------------------------------|
D|-------------------------------|
A|----4--5--7--5--4-----4--5--4--|
E|--5----------------3-----------|
B|-------------------------------|

G|--------------------------------|
D|--------------------------------|
A|--------4-5--4------4--5--4-----|
E|--3--2---------2-3-----------3--|
B|--------------------------------|

G|-------------------------------|
D|-------------------------------|
A|----4--5--7--5--4-----4--5--4--|
E|--5----------------3-----------|
B|-------------------------------|

G|--------------------------------|
D|--------------------------------|
A|--------4-5--4------4--5--4--4--|
E|--3--2---------2-3--------------|
B|--------------------------------|

Chorus:
G|------------------------------------------------------------|
D|--------------------------------------------------0--0-0-0--|
A|---------------------3-3-3-3--------------------------------|
E|--0-1-0-3--3---3-0-1-----------0-1-0-3--3---3-0-1-----------|
B|------------------------------------------------------------|

G|-----------------------------------------------|
D|-----------------------------------------------|
A|---------------------3--3-3-3------------------|
E|--0-1-0-3--3---0-1-0-----------0-1-0-3--3---1--|
B|-----------------------------------------------|

Break:
G|-----------------------------------------------------|
D|-----------------------------------------------------|
A|---------------------0-2--2-----------3-3-3----------|
E|--3-2--0--0--0---0-2---------0--0--0--------2-2-3-2--|
B|-----------------------------------------------------|

G|-------------------------------------------------|
D|---------------------------------3-2------3-2----|
A|----------------0-2--2---------------3-2------3--|
E|--0--0--0---0-2---------0--0--0------------------|
B|-------------------------------------------------|

G|---------------------------------------------------------------|
D|-------------5---2---------------------------------------------|
A|---------------5---2---5---------------------------------------|
E|--0--0--0--3---------3---0--0--0--7-7--5-5--3-3--2-2--0--0--0--|
B|---------------------------------------------------------------|

G|-----------------------------------------------------------------|
D|--5-4-3-2-1-0---------------------------------------------0-1-2--|
A|--------------4-3-2-1-0-------------------------0-1-2-3-4--------|
E|------------------------4-3--2--1--0--1--2--3-4------------------|
B|-----------------------------------------------------------------|

G|-------------------------------------|
D|-------------------------------------|
A|-----------3-3-3---------------------|
E|--0--0--0--------2-2-3-2----2-2-3-2--|
B|-------------------------------------|

Verse 3:
G|-----------------------------|
D|-----------------------------|
A|-----4-5--4------4--5--4-----|
E|--2---------2-3-----------3--|
B|-----------------------------| (x3)

G|-----------------------|
D|-----------------------|
A|-----4-5--4------------|
E|--2---------2-3--3--3--|
B|-----------------------|

Outro:
G|----------------------------------------------|
D|----------------------------------------------|
A|----4-5-7-5-4---4-5-7------4-5-7-5-4---4-5-7--|
E|--5-----------3----------2-----------3--------|
B|----------------------------------------------| (x2)

G|----------------------------------------------|
D|----------------------------------------------|
A|----4-5-7-5-4---4-5-4------4-5-7-5-4---4-5-4--|
E|--5-----------3----------2-----------3--------|
B|----------------------------------------------|

   Gradually  slow  down
G|----------------------------------------------|
D|----------------------------------------------|
A|----4-5-7-5-4---4-5-7------4-5-7-5-4---4-5-7--|
E|--5-----------3----------2-----------3--------|
B|----------------------------------------------|

G|------------------------------------|
D|------------------------------------|
A|------------------------------------|
E|--5~-----5-x--3-x--2-x--x-1--0---0--|
B|------------------------------------|

---Offbeat Bare Ass – Unregistered-------------------------------------------------------

Intro/Verse 1:
G|--------------------------------------------------------------------------|
D|--------------------------------------------------------------------------|
A|--------------------------------------------------------------------------|
E|--------------------------------------------------------------------------|
B|--0--0--1--1--0--0--1--1--0--0--1--1--0--0--1--1--0--0--1--1--0--0--1--1--| (x2)

G|------------------------------------------------------------|
D|---------------------------------------------4-2------------|
A|-------------------------------------------------4-3-2-0----|
E|---------------------------------------------------------0--|
B|--0--0--1--1--0--0--1--1--0--0--1--1--0--0------------------|

G|-------------------------------------------------------------------|
D|----------4-2-4-4---------4-2-4-4---------4-2-4-4---------4-2-4-4--|
A|-------------------------------------------------------------------|
E|--0-1-2-2---------0-1-2-2---------0-1-2-2---------0-1-2-2----------|
B|-------------------------------------------------------------------| (x3)

G|------------------------------------------------|
D|------------------------------------------------|
A|------------------------------------------------|
E|--0-0--0--x2-3-2-----------------------------3--|
B|---------------------------------3-5-5-3-5-3----|

Chorus:
G|----------------------------------------------------------------------|
D|----------------------------------------------------------------------|
A|----------------------------------------------------------------//12--|
E|--3-3------------3-3------------3-3------------3-3--------------------|
B|------2--2-2-2-2-----2--2-2-2-2-----2--2-2-2-2-----2--2-2-2-2---------|

Verse 2:
G|--------------------------------------------------------------|
D|--------------------------------------------------------------|
A|--------------------------------------------------------------|
E|--------------------------------------------------------------|
B|--0--0--1--1--0--0--1--1--0--0--1--1--0--0--1--1--0--0--1--1--|

G|--------------------|
D|--------------------|
A|--------------------|
E|--------------------|
B|--0--0--1--1--0--0--|

G|--------4-4p2---------2-2h4--------4-4p2-2-2-------2h4--|
D|--------------4-2h4-x------------------------4-2h4------|
A|--0h2-x----------------------0h2-x--------x-------------|
E|--------------------------------------------------------|
B|--------------------------------------------------------| (x2)
    S   S P P   S S   S P P    S   S P P   PSP S S   P

G|-------------------------------------------------------------------|
D|----------4-2-4-4---------4-2-4-4---------4-2-4-4---------4-2-4-4--|
A|-------------------------------------------------------------------|
E|--0-1-2-2---------0-1-2-2---------0-1-2-2---------0-1-2-2----------|
B|-------------------------------------------------------------------| (x3)

Chorus:
G|----------------------------------------------------------------------|
D|----------------------------------------------------------------------|
A|----------------------------------------------------------------//12--|
E|--3-3------------3-3------------3-3------------3-3--------------------|
B|------2--2-2-2-2-----2--2-2-2-2-----2--2-2-2-2-----2--2-2-2-2---------|

Verse 3:
G|-------------------------------------------------------------------|
D|-------------------------------------------------------------------|
A|-------------------------------------------------------------------|
E|-------------------------------------------------------------------|
B|--19\--0--0--1--1--0--0--1--1--0--0--1--1--0--0--1--1--0--0--1--1--|

G|--------4-4p2---------2-2h4--------4-4p2-2-2-------2h4--|
D|--------------4-2h4-x------------------------4-2h4------|
A|--0h2-x----------------------0h2-x--------x-------------|
E|--------------------------------------------------------|
B|--------------------------------------------------------| (x4)
    S   S P P   S S   S P P    S   S P P   PSP S S   P

G|-------------------------------------------------------------------|
D|----------4-2-4-4---------4-2-4-4---------4-2-4-4---------4-2-4-4--|
A|-------------------------------------------------------------------|
E|--0-1-2-2---------0-1-2-2---------0-1-2-2---------0-1-2-2----------|
B|-------------------------------------------------------------------| (x3)

Chorus/Outro:
G|---------------------------------------------------------------|
D|---------------------------------------------------------------|
A|------------------------------------4--4-4-4-4-----------------|
E|--3-3------------3-3------------3-3------------3-3-------------|
B|------2--2-2-2-2-----2--2-2-2-2--------------------2--2-2-2-2--|

G|-------------------------------------------------------|
D|-------------------------------------------------------|
A|------4--4-4-4-4---------------------------------------|
E|--3-3------------3-3------------3-3------------3-3-----|
B|---------------------2--2-2-2-2-----2--2-2-2-2-----2~--|


---1,2,3 – rhill555----------------------------------------------------------------------

Verse 1:
G|--------------------------------------------------------------------------|
D|--------------------------------------------------------------------------|
A|--4--------4--------2--------2--------4--------4--------2------------7-6--|
E|----2-2------2-2------0-0------0-0-0----2-2------2-2------0-0------0------|
B|--------------------------------------------------------------------------|

Pre-Chorus:
G|------------------------------------------------------|
D|------------------------------------------------------|
A|--5-5-5-5------5-5-5-5---5--4-4-4-4------4-4-4-4---4--|
E|----------5--5---------5------------4--4---------4----|
B|------------------------------------------------------|

G|------------------------------------------------------|
D|------------------------------------------------------|
A|--5-5-5-5------5-5-5-5---5--4-4-4-4------4-4-4-4------|
E|----------5--5---------5------------4--4---------5-4--|
B|------------------------------------------------------|

Chorus:
G|--------------------------------------|
D|--------2--4--2-----------2--4--2-----|
A|--2--4-----------4--0--4-----------4--|
E|--------------------------------------|
B|--------------------------------------| (x2)

Verse 2:
G|--------------------------------------------------------------------------|
D|--------------------------------------------------------------------------|
A|--4--------4--------2--------2--------4--------4--------2------------7-6--|
E|----2-2------2-2------0-0------0-0-0----2-2------2-2------0-0------0------|
B|--------------------------------------------------------------------------|

Pre-Chorus:
G|------------------------------------------------------|
D|------------------------------------------------------|
A|--5-5-5-5------5-5-5-5---5--4-4-4-4------4-4-4-4---4--|
E|----------5--5---------5------------4--4---------4----|
B|------------------------------------------------------|

G|------------------------------------------------------|
D|------------------------------------------------------|
A|--5-5-5-5------5-5-5-5---5--4-4-4-4------4-4-4-4------|
E|----------5--5---------5------------4--4---------5-4--|
B|------------------------------------------------------|

Chorus:
G|--------------------------------------|
D|--------2--4--2-----------2--4--2-----|
A|--2--4-----------4--0--4-----------4--|
E|--------------------------------------|
B|--------------------------------------| (x2)

Outro:
G|----------------------------------------------|
D|----------------------------------------------|
A|----------------------------------------------|
E|--0-2-4--2-4-5---5-4-2--0-2-4--2-4-5---5-4-2--|
B|----------------------------------------------|

G|----------------------------------------------------|
D|----------------------------------------------------|
A|----------------------------------------------------|
E|--0-2-4--2-4-5---5-4-2--0-2-4--2-4-5---5-4--4-2--2--|
B|----------------------------------------------------|

G|----------------------------------------------|
D|----------------------------------------------|
A|----------------------------------------------|
E|--0-2-4--2-4-5---5-4-2--0-2-4--2-4-5---5-4-2--|
B|----------------------------------------------|

G|----------------------------------------------------|
D|----------------------------------------------------|
A|----------------------------------------------------|
E|--0-2-4--2-4-5---5-4-2--0-2-4--2-4-5---5-4--4-2--2--|
B|----------------------------------------------------|

G|--------------------------------------|
D|--------------------------------------|
A|--------------------------------------|
E|--------0--2--0-----5-----0--2--0-----|
B|--0--2-----------2-----2-----------2--|

G|---------------------------------------|
D|---------------------------------------|
A|-----------------------------------4~--|
E|--------0--2--0-----5-----0--2--0------|
B|--0--2-----------2-----2-----------2~--|
Добавлено: 05.03.2012
Другие материалы по этой песне:
  • Аккорды и текст

Страница создана 05.03.2012
http://primanota.ru/311/grassroots-album-chords.htm
Привет, Гость.
Предлагаем пройти революционный курс по гитаре.
Подарок от PrimaNota.Ru, забирай!