PrimaNota.ru - самый крупный в мире бесплатный архив песенных текстов, аккордов, табулатур и нот


30y - Emberirtó - таба, видео

Регистрация Запомнить меня
Войти через:  Facebook Google Twitter Vk Yandex Mail.ru

30y - Emberirtó - таба, видео

Печатать
Просмотров: 66
Előadó/Artist: 30y
Dal/Song: Emberirtó
Album: Szentimentálé
Készítette/Tabbed by: Farkas Péter

Hangolás/Tuning: Standard (EADGBe)


INTRO:

e|---------------------------------|                                     
B|---------------------------------|                                       
G|---------------------------------|                                      
D|--9---9---9---9---9---9---7--7---| x2                  
A|--11--11--11--11--11--11--9--9---|                                      
E|--0---0---10--10--9---9---8--8---|                    



VERSE 1, 2, 3, 4, 5:
                                                                    
e|---------------------------------------------------------------|        
B|---------------------------------------------------------------|      
G|---------------------------------------------------------------|      
D|--9---9---9---9---9---9---7--7---9---9---9---9---9---9---7--7--|
A|--11--11--11--11--11--11--9--9---11--11--11--11--11--11--9--9--|
E|--0---0---10--10--9---9---8--8---0---0---10--10--9---9---8--8--|
                                                                                              
                                                                              
e|-------------------------------------------------------------|           
B|-------------------2--2--------------------------------------|           
G|-6--6--------1--1--2--2--------------------------------------|           
D|-6--6--4--4--2--2--2--2--4-4-4-4-6-6-6-6-2-2-2-2--7--7--7--7-|          
A|-4--4--4--4--2--2--0--0--5-5-5-5-7-7-7-7-4-4-4-4--9--9--9--9-|           
E|-------2--2--0--0---------------------------------8--8--8--8-|           
                                                                           
       
                                                             
BRIDGE:

      Bm      Em    G    Em

   e|-2-0h2p0---0-----3-----0---|
   B|-3-------0--0--0--0--0--0--|
   G|-4-------0---0-0---0-0---0-|  x2
   D|-4-------2-----0-----2-----|  
   A|---------2-----2-----2-----|
   E|---------0-----3-----0-----|



OUTRO:

                                ||                                 
               Riff 1           ||        Riff 2                   
                                ||                                
      Bm      Em    G     Em    || Bm      Em    G7    Em         
                                ||                                 
   e|-2-2-------0-----3-----0---||-2-2-------0-----1-----0---|     
   B|-3---3---0--0--0--0--0--0--||-3---3---0--0--0--0--0--0--|     
   G|-4-----4-0---0-0---0-0---0-||-4-----4-0---0-0---0-0---0-|     
   D|-4-------2-----0-----2-----||-4-------2-----0-----2-----|     
   A|---------2-----2-----2-----||---------2-----2-----2-----|    
   E|---------0-----3-----0-----||---------0-----3-----0-----|    
                                ||                                 

  Play:
                                                              
   Riff 1 - 2 - 1 - 2                                             
        2 - 2 - 1 - 2                                             
        1 - 1 - 1                                                

  G7~                                                           
  Bm~ Em~ G7~                                                   
                                                                 

-----------
 Dalszöveg:
-----------

VERSE 1:

 Távol állnak messzi látók lencséjén a déli napnak,
 arcod csillog menjél délnek,
 maradj itt vagy menj északnak,
 annyi válasz, kérdés nincsen,
 elindulsz ha nem is várnak
 minden álomból felébredsz
 nézz most rám és mondj vidámat!

VERSE 2:

 Bátorít a bátorítód, 
 elgyengít a gyávaságod,
 elaltat az andalító,
 te előttem én utánad,
 állj a parton nézz a szélbe,
 jósolj délből hullámokból, 
 minden hullám partig ér el,
 lábadhoz ér úgy dorombol..

VERSE 3:

 Minden hullám partra vágyik, 
 lábadhoz ér úgy dorombol,
 kapard el vagy kapard ki
 vagy kapard össze koromból,
 jósolj múltat legyen benne,
 bosszúálló szívet tépő, 
 engem mindig megríkató,
 téged mindig felderítő!

VERSE 4:

 Legyen olyan, amilyenbe 
 fürdünk, mint az óceánba,
 bokád körül aranyhalak,
 alul csönd van felül lárma,
 alul alsók felül felsők, 
 alul úsznak felül szállnak,
 középen meg emberirtót 
 fecskendezek nem sajnállak!

VERSE 5:

 Megint kezdem sosincs vége,
 sorban állsz és vársz a kódra, 
 ez az ember az utolsó, 
 ezt firkálom a trikódra, 
 ez az ember az utolsó, 
 menj utána ahol földre 
 esik figyeld, amíg a szuszog,
 a trikóját vedd el tőle!

OUTRO:

 Az élet nem mély óceán, 
 a hajónk nem ring rajta,
 mint dinnyehéjak a Dunán.
 Képekből gyúrunk múltat, 
 múltakból gyúrunk képet,
 engeded vagy még tartanád,
 se élet nincs, se óceán,
 a szavak hullámverése, 
 dadog a csónak oldalán,
 olcsó gumimatracok közt csíkos kék-fehéren vagy felhők közt az égen.

 Képekből gyúrunk múltat, 
 múltakból gyúrunk képet,
 velem nem történt meg, 
 veled megtörténhet,
 velem nem történt meg,
 veled megtörténhet.

Добавлено: 27.11.2015
Другие материалы по этой песне:
  • Аккорды и текст

Страница создана 27.11.2015
http://primanota.ru/30y/emberirto-chords.htm
Привет, Гость.
Предлагаем пройти революционный курс по гитаре.
Подарок от PrimaNota.Ru, забирай!