PrimaNota.ru - самый крупный в мире бесплатный архив песенных текстов, аккордов, табулатур и нот


30 Seconds To Mars - Pyres Of Varanasi - таба, видео

Регистрация Запомнить меня
Войти через:  Facebook Google Twitter Vk Yandex Mail.ru

30 Seconds To Mars - Pyres Of Varanasi - таба, видео

Печатать
Просмотров: 406
Авторы музыки: Jared Leto
Авторы текста: Jared Leto
This is my first tab. I can clearly hear it, hope it's same to you guys. I'll make 
the whole song later. enjoy the intro.

  E|------------------------------------------------------|
  B|------------------------------------------------------|
  G|------------------------------------------------------|
  D|------------------------------------------------------|  2x
  A|----6-4-1---------------------------------------------|
  E|--3------1--------------------------------------------|

  E|------------------------------------------------------|
  B|------------------------------------------------------|
  G|----------------12--14--------------------------------|
  D|--12-14-12-15-12--12----------------------------------|  6x
  A|------------------------------------------------------|
  E|------------------------------------------------------|


  E|------------------------------------------------------|
  B|------------------------------------------------------|
  G|----12--------------14--------------------------------|
  D|--12--12-15-12-14-12----------------------------------|
  A|------------------------------------------------------|
  E|------------------------------------------------------|

  repeat it
Добавлено: 18.08.2013
Другие материалы по этой песне:
  • Аккорды и текст

Страница создана 20.07.2013
http://primanota.ru/30-seconds-to-mars/pyres-of-varanasi-chords.htm
Привет, Гость.
Предлагаем пройти революционный курс по гитаре.
Подарок от PrimaNota.Ru, забирай!