PrimaNota.ru - самый крупный в мире бесплатный архив песенных текстов, аккордов, табулатур и нот


30 Seconds To Mars - Battle Of One - таба, бас-таба, перевод, видео

Регистрация Запомнить меня
Войти через:  Facebook Google Twitter Vk Yandex Mail.ru

30 Seconds To Mars - Battle Of One - таба, бас-таба, перевод, видео

Печатать
Просмотров: 401
Авторы музыки: Jared Leto
Авторы текста: Jared Leto
tuning: dropped c
c-g-c-f-a-d

x-mute string
\-slide down
H-natural harmonic

guitars:2

intro (after 4 drum bars)
|----------------------------------------------------------------------|
|----------------------------------------------------------------------|
|----------------------------------------------------------------------|
|----------------------------------------------------------------------|
|----------------------------------------------------------------------|
|-16\12-0-----10-12-12-12-12-0-----10-12-12-12-12-0-----10-12-12-12-12-|

|----------------------------------------------------------------|
|----------------------------------------------------------------|
|----------------------------------------------------------------|
|----------------------------------------------------------------|
|----------------------------------------------------------------|
|-0-----10-12-12-12-12-0-----10-12-12-12-12-0-----10-12-12-12-12-|

|-----------------------------------------------|
|-----------------------------------------------|
|-----------------------------------------------|
|-----------------------------------------------|
|-----------------------------------------------|
|-0-----10-12-12-12-12-12-13-13-13-13-13-13-13--|

verse
|-----------------------------------------------------------------|
|-----------------------------------------------------------------|
|-----------------------------------------------------------------|
|-----------------------------------------------------------------| x2
|-----------------------------------------------------------------|
|-0-----10-12-12-12-12-0-----10-12-12-12-12-0-----10-12-12-12-12--|

|----------------------------------------|
|----------------------------------------|
|----------------------------------------|
|----------------------------------------|
|----------------------------------------|
|-0-----10-12-12-12-12-0-13-12-0-15-0-17-|

|-----------------------------------------------------------------|
|-----------------------------------------------------------------|
|-----------------------------------------------------------------|
|-----------------------------------------------------------------| x2
|-----------------------------------------------------------------|
|-0-----10-12-12-12-12-0-----10-12-12-12-12-0-----10-12-12-12-12--|

|-----------------------------------------------|
|-----------------------------------------------|
|-----------------------------------------------|
|-----------------------------------------------|
|-----------------------------------------------|
|-0-----10-12-12-12-12-12-13-13-13-13-13-13-13--|

pre-chorus
guitar 1
|-----------------------------------------------------------------|
|-----------------------------------------------------------------|
|-----------------------------------------------------------------|
|-8-----8-----8---8-----8-----8---5-----5-----5---5-----10-----10-|
|-8-----8-----8---8-----8-----8---5-----5-----5---5-----10-----10-|
|-8-----8-----8---8-----8-----8---5-----5-----5---5-----10-----10-|

guitar 2
|-------------------------------------------------|
|-13-15-15-15-15-15-15-15-15-15-15-15-15-15-15-15-|
|-------------------------------------------------|
|-------------------------------------------------|
|-------------------------------------------------|
|-------------------------------------------------|
g-2 continued...
|----------------------------10-10-10-10-11-11-11-|
|-13-15-15-15-15-15-15-15-15----------------------|
|-------------------------------------------------|
|-------------------------------------------------|
|-------------------------------------------------|
|-------------------------------------------------|

|---------------------------------------------|
|---------------------------------------------|
|---------------------------------------------|
|---------------------------------------------| x2
|---------------------------------------------|
|-0-----10-12-12-12-12-0-----10-12-12-12-12---|

repeat verse


pre-chorus
guitar 1
|-----------------------------------------------------------------|
|-----------------------------------------------------------------|
|-----------------------------------------------------------------|
|-8-----8-----8---8-----8-----8---5-----5-----5---5-----10-----10-| x2
|-8-----8-----8---8-----8-----8---5-----5-----5---5-----10-----10-|
|-8-----8-----8---8-----8-----8---5-----5-----5---5-----10-----10-|

g-1 continued...
|---------------------------------------------------------------------|
|---------------------------------------------------------------------|
|---------------------------------------------------------------------|
|-8-----8-----8---8-----8-----8---10-----10-----10---11-----11-----11-|
|-8-----8-----8---8-----8-----8---10-----10-----10---11-----11-----11-|
|-8-----8-----8---8-----8-----8---10-----10-----10---11-----11-----11-|

guitar 2
|--------------------------------------------------|
|-13-15-15-15-15-15-15-15-15-15-15-15-15-15-15-15--|
|--------------------------------------------------|
|--------------------------------------------------| x3
|--------------------------------------------------|
|--------------------------------------------------|

|----------------------------10-10-10-10-11-11-11-|
|-13-15-15-15-15-15-15-15-15----------------------|
|-------------------------------------------------|
|-------------------------------------------------|
|-------------------------------------------------|
|-------------------------------------------------|

|-------------------------------------------------|
|-13-15-15-15-15-15-15-15-15-15-15-15-15-15-15-15-|
|-------------------------------------------------|
|-------------------------------------------------|
|-------------------------------------------------|
|-------------------------------------------------|

|----------------------------10-10-10-10-11-11-11-|
|-13-15-15-15-15-15-15-15-15----------------------|
|-------------------------------------------------|
|-------------------------------------------------|
|-------------------------------------------------|
|-------------------------------------------------|

chorus

guitar 1
|----------------------------|
|----------------------------|
|-------------------------8--|
|-0-----0-----------------x--| x3
|-0-----0---H-H-H-H-H-H-H-6--|
|-0-----0---3-3-4-5-6-7-7----|

g-1 continued...
|---------------------------|
|---------------------------|
|-10----10----10--9-------5-|
|-x-----x-----x---x-------x-|
|-8-----8-----8---7-------3-|
|---------------------------|

guitar 2
|-10-10-10-12-12-12-12-12-12-12-12-12-12-12-12-12-|
|-------------------------------------------------|
|-------------------------------------------------|
|-------------------------------------------------|
|-------------------------------------------------|
|-------------------------------------------------|

|-12-12-12-12-12-12-12-12-12-12-12-12-12-12-12-12--|
|--------------------------------------------------|
|--------------------------------------------------|
|--------------------------------------------------| x2
|--------------------------------------------------|
|--------------------------------------------------|

|-13-----13-----13---12-13-15--------------------|
|------------------------------------------------|
|------------------------------------------------|
|------------------------------------------------|
|------------------------------------------------|
|------------------------------------------------|

bass for 8 bars
|---------------------------------------------|
|---------------------------------------------|
|---------------------------------------------|
|---------------------------------------------| x4
|---------------------------------------------|
|-0-----10-12-12-12-12-0-----10-12-12-12-12---|

bridge

guitar 1
|---------------------------------------------|
|---------------------------------------------|
|---------------------------------------------|
|---------------------------------------------| x8
|---------------------------------------------|
|-0-----10-12-12-12-12-0-----10-12-12-12-12---|

guitar 2
|-----------------------------------------------------------------|
|-----------------------------------------------------------------|
|-7-7-7-7-7-7-7-7-7-7-7-7-7-7-7-7-9-9-9-9-9-9-9-9-9-9-9-9-9-9-9-9-|
|-x-x-x-x-x-x-x-x-x-x-x-x-x-x-x-x-x-x-x-x-x-x-x-x-x-x-x-x-x-x-x-x-|
|-5-5-5-5-5-5-5-5-5-5-5-5-5-5-5-5-7-7-7-7-7-7-7-7-7-7-7-7-7-7-7-7-|
|-----------------------------------------------------------------|

|------------------------------------------------------------------------|
|-(just to note, 10's not 1's & 0's)-------------------------------------|
|-1010101010101010101010101010101012-12-12-12-12-12-12-12-12-12-12-12-12-|
|-x-x-x-x-x-x-x-x-x-x-x-x-x-x-x-x-x--x--x--x--x--x--x--x--x--x--x--x--x--|
|-8-8-8-8-8-8-8-8-8-8-8-8-8-8-8-8-10-10-10-10-10-10-10-10-10-10-10-10-10-|
|------------------------------------------------------------------------|

|-------------------------------------------------------------------------|
|-------------------------------------------------------------------------|
|-12-12-12-14-14-14-14-14-14-14-14-14-14-14-14-14-14-14-14-15-15-15-15-15-|
|-x--x--x--x--x--x--x--x--x--x--x--x--x--x--x--x--x--x--x--x--x--x--x--x--|
|-10-10-10-12-12-12-12-12-12-12-12-12-12-12-12-12-12-12-12-13-13-13-13-13-|
|-------------------------------------------------------------------------|

|-------------------------------------------------------------------------|
|-------------------------------------------------------------------------|
|-15-15-15-15-15-15-15-15-15-15-15-17-17-17-17-17-17-17-17-17-17-17-17-17-|
|-x--x--x--x--x--x--x--x--x--x--x--x--x--x--x--x--x--x--x--x--x--x--x--x--|
|-13-13-13-13-13-13-13-13-13-13-13-15-15-15-15-15-15-15-15-15-15-15-15-15-|
|-------------------------------------------------------------------------|

|----------------------------------------------------------|
|----------------------------------------------------------|
|-17-17-17-19-19-19-19-19-19-19-19-19-19-19-19-19-19-19-19-|
|-x--x--x--x--x--x--x--x--x--x--x--x--x--x--x--x--x--x--x--|
|-15-15-15-17-17-17-17-17-17-17-17-17-17-17-17-17-17-17-17-|
|----------------------------------------------------------|

pre-chorus

guitar 1
|-----------------------------------------------------------------|
|-----------------------------------------------------------------|
|-----------------------------------------------------------------|
|-8-----8-----8---8-----8-----8---5-----5-----5---5-----10-----10-| x2
|-8-----8-----8---8-----8-----8---5-----5-----5---5-----10-----10-|
|-8-----8-----8---8-----8-----8---5-----5-----5---5-----10-----10-|

g-1 continued...
|---------------------------------------------------------------------|
|---------------------------------------------------------------------|
|---------------------------------------------------------------------|
|-8-----8-----8---8-----8-----8---10-----10-----10---11-----11-----11-|
|-8-----8-----8---8-----8-----8---10-----10-----10---11-----11-----11-|
|-8-----8-----8---8-----8-----8---10-----10-----10---11-----11-----11-|

guitar 2
|--------------------------------------------------|
|-13-15-15-15-15-15-15-15-15-15-15-15-15-15-15-15--|
|--------------------------------------------------|
|--------------------------------------------------| x3
|--------------------------------------------------|
|--------------------------------------------------|

|----------------------------10-10-10-10-11-11-11-|
|-13-15-15-15-15-15-15-15-15----------------------|
|-------------------------------------------------|
|-------------------------------------------------|
|-------------------------------------------------|
|-------------------------------------------------|

|-------------------------------------------------|
|-13-15-15-15-15-15-15-15-15-15-15-15-15-15-15-15-|
|-------------------------------------------------|
|-------------------------------------------------|
|-------------------------------------------------|
|-------------------------------------------------|

|----------------------------10-10-10-10-11-11-11-|
|-13-15-15-15-15-15-15-15-15----------------------|
|-------------------------------------------------|
|-------------------------------------------------|
|-------------------------------------------------|
|-------------------------------------------------|

chorus

guitar 1
|----------------------------|
|----------------------------|
|-------------------------8--|
|-0-----0-----------------x--| x3
|-0-----0---H-H-H-H-H-H-H-6--|
|-0-----0---3-3-4-5-6-7-7----|

g-1 continued...
|---------------------------|
|---------------------------|
|-10----10----10--9-------5-|
|-x-----x-----x---x-------x-|
|-8-----8-----8---7-------3-|
|---------------------------|

guitar 2
|-10-10-10-12-12-12-12-12-12-12-12-12-12-12-12-12-|
|-------------------------------------------------|
|-------------------------------------------------|
|-------------------------------------------------|
|-------------------------------------------------|
|-------------------------------------------------|

|-12-12-12-12-12-12-12-12-12-12-12-12-12-12-12-12--|
|--------------------------------------------------|
|--------------------------------------------------|
|--------------------------------------------------| x2
|--------------------------------------------------|
|--------------------------------------------------|

|-13-----13-----13---12-13-15--------------------|
|------------------------------------------------|
|------------------------------------------------|
|------------------------------------------------|
|------------------------------------------------|
|------------------------------------------------|

repeat the chorus part 1 more time.

outro

guitar 1
|---------------------------------------------------------------|
|---------------------------------------------------------------|
|---------------------------------------------------------------|
|-0-----0-----0---0-----0-----0---0-----0-----0---0-----0-----0-|
|-0-----0-----0---0-----0-----0---0-----0-----0---0-----0-----0-|
|-0-----0-----0---0-----0-----0---0-----0-----0---0-----0-----0-|

g-1 continued...
|---------------------------------------------------|
|---------------------------------------------------|
|---------------------------------------------------|
|-0-----0-----0---0-----0-----0---0-----0-----0---0-|
|-0-----0-----0---0-----0-----0---0-----0-----0---0-|
|-0-----0-----0---0-----0-----0---0-----0-----0---0-|

guitar 2
|---------------------------------------------------------------|
|---------------------------------------------------------------|
|-7-----7-----7---7-----7-----7---9-----9-----9---9-----9-----9-|
|-x-----x-----x---x-----x-----x---x-----x-----x---x-----x-----x-|
|-5-----5-----5---5-----5-----5---7-----7-----7---7-----7-----7-|
|---------------------------------------------------------------|

g-2 continued...
|----------------------------------------------------|
|----------------------------------------------------|
|-10----10----10--10----10----10--12----12----12--14-|
|-x-----x-----x---x-----x-----x---x-----x-----x---x--|
|-8-----8-----8---8-----8-----8---10----10----10--12-|
|----------------------------------------------------|
Добавлено: 11.06.2013
Другие материалы по этой песне:

Страница создана 19.03.2012
http://primanota.ru/30-seconds-to-mars/battle-of-one-chords.htm
Привет, Гость.
Предлагаем пройти революционный курс по гитаре.
Подарок от PrimaNota.Ru, забирай!