PrimaNota.ru - самый крупный в мире бесплатный архив песенных текстов, аккордов, табулатур и нот


30 Seconds To Mars - A Call To Arms - таба, видео

Регистрация Запомнить меня
Войти через:  Facebook Google Twitter Vk Yandex Mail.ru

30 Seconds To Mars - A Call To Arms - таба, видео

Печатать
Просмотров: 567




30 Seconds to Mars                                      30 Seconds to Mars  

This Is war                                                    This Is war

2010                                                                  2010


                             "A Call To Arms"



intro:

synth (delay)
E:-----------------------------------------------------------------|
B:------10--------10--------10---------10--------------------------|
G:-7-7-7-----7-7-7-----7-7-7-----7-7-7-----------------------------|
D:-----------------------------------------------------------------|
A:-----------------------------------------------------------------|
E:-----------------------------------------------------------------|

dist/delay  guitar
E:-----------------------------------------------------------------|
B:-------------------------------------10p8-8-8-8------------------|
G:-7-7-7-7-7-7-7-7-7-7-7-7-7-7-7-7-7-7-----------------------------|
D:-----------------------------------------------------------------|
A:-----------------------------------------------------------------|
E:-----------------------------------------------------------------|


This is a call to arms, gather soldiers
Time to go to war
This is a battle song, brothers and sisters
D5            G5  A5  F#5
Time to go to war

(D5)
...

1st VERSE:       Strumming:DDDD DUDUD      (Everthing twice)
    D5          G5          D5          A5     
E:------------------------------------------------------|(Actually this
B:------------------------------------------------------|is played by bass)
G:--7777-77777--------------7777-77777------------------|
D:--7777-77777--5555-55555--7777-77777--7777-77777------|
A:--5555-55555--5555-55555--5555-55555--7777-77777------|
E:--------------3333-33333--------------5555-55555------|

(This is played during the verses)
E:------------------------------------------------------------10(x13)-9-9-9--|
B:-10(x16)-8(x8)-7(x8)---10--10-10--10-10-10---8--8-8--8-8-8-----------------|
G:---------------------------------------------------------------------------|
D:---------------------------------------------------------------------------| X2
A:---------------------------------------------------------------------------|
E:---------------------------------------------------------------------------|
             D5
Did you ever believe?
                D5
Were you ever a dreamer?
      G5                    G5
Ever imagine heart open and free?

E:------------------------------------------------------------------10(x26)-9(x6)-|
B:-10--10-10--10-10-10--8--8-8--8-8-8--7--7-7--7-7-7--7--7-7--7-7-7---------------|
G:--------------------------------------------------------------------------------|
D:--------------------------------------------------------------------------------|
A:--------------------------------------------------------------------------------|
E:--------------------------------------------------------------------------------|
             D5
Did you ever deny?
                D5
Were you ever a traitor?
        A5                       A5 
Ever in love with your bloodless business?


1st CHORUS:

D5
This is a call to arms, gather soldiers
              G5  A5  F#5
Time to go to war
D5
This is a battle song, brothers and sisters
              G5  A5  F#5  D5
Time to go to war

2nd VERSE:

Ever want to be free?
Do you even remember?
Want to be god and devil like me?
Ever want to just stop?
Do you want to surrender?
Or fight for victory?

Then this:

   Gsus                 Bm                 D              A
E:--------------------------------------------------------------|
B:---10-------------------8------------------7--------------5---|
G:--------------------------------------------------------------|
D:--------------------------------------------------------------|
A:-10--------------------------------------5--------------------|
E:----------------------7---------------------------------5-----|
  Here we are at the start, I can feel the beating of our hearts
   Gsus                 Bm     
E:----------------------------|
B:---10-------------------8---|
G:----------------------------|
D:----------------------------|
A:-10-------------------------|
E:----------------------7-----|
  Here we are at the start...



synth comes again
D5...


        
E:---------5s3-------------------s10----------------5s3-------------s10----------|
B:-------------------------------------------------------------------------------|
G:-7-7-7---------------7-7-7-----------------7-7-7----------7-7-7----------------|
D:-7-7-7---------------7-7-7-----------------7-7-7----------7-7-7----------------|
A:-5-5-5---------------5-5-5-----------------5-5-5----------5-5-5----------------|
E:-------------------------------------------------------------------------------|
   Darkness falls, but here comes the rain to wash away those passed and the names


E:---------5s3----------------s10------------------5s3-------------s10-----------|
B:-----------------------------------------------------------------------8-------|
G:-7-7-7-----------7-7-7-------------------7-7-7----------7-7-7------------7-----|
D:-7-7-7-----------7-7-7-------------------7-7-7----------7-7-7--------------0---|
A:-5-5-5-----------5-5-5-------------------5-5-5----------5-5-5------------------|
E:-------------------------------------------------------------------------------|
   Darkness falls, here comes the rain to end it all, the blood and the game


                                                        *
D5           *     G5                        *       B:--8---|
Far, far away in a land that time can't change       G:---7--|
D5            *     A5                       *       D:----0-|
Long, long ago in a place of hearts and ghosts
D5           *     G5                        *
Far, far away in a land that time can't change
D5            *     A        Asus4       A?           A? x022x0          
Long, long ago in a place of hearts and gold


FINAL CHORUS:

D5
This is a call to arms, gather soliders
Time to go to war (Far, far away...)

Bm                              C#5   D5
This is a battle song, brothers and sisters
A5
Time to go to war (Long, long ago...)

D5                             G5  F#5  (G5 and F#5 - 10th and 9th fret)
This is a call to arms, gather soliders
G5
Time to go to war (Far, far away...)

Bm                              C#5   D5
This is a battle song, brothers and sisters
A       Asus     A?
Time to go to war

D5               G5  F#5    G5           G5 F#5    
This is a call to arms,    way of the night
D5               G5  F#5   A
This is a battle song,    way of the night


Synth in the end...
E:----------------------------------------------------------------------------------|
B:------10--------10--------10---------10---------8---------8---------8---------8---|
G:-7-7-7-----7-7-7-----7-7-7-----7-7-7------7-7-7-----7-7-7-----7-7-7-----7-7-7-----|
D:----------------------------------------------------------------------------------|
A:----------------------------------------------------------------------------------|
E:----------------------------------------------------------------------------------|


Добавлено: 23.10.2013
Другие материалы по этой песне:
  • Аккорды и текст

Страница создана 23.10.2013
http://primanota.ru/30-seconds-to-mars/a-call-to-arms-chords.htm
Привет, Гость.
Предлагаем пройти революционный курс по гитаре.
Подарок от PrimaNota.Ru, забирай!