PrimaNota.ru - самый крупный в мире бесплатный архив песенных текстов, аккордов, табулатур и нот


3 Inches Of Blood - Rejoice In The Fires Of Mans Demise - таба, видео

Регистрация Запомнить меня
Войти через:  Facebook Google Twitter Vk Yandex Mail.ru

3 Inches Of Blood - Rejoice In The Fires Of Mans Demise - таба, видео

Печатать
Просмотров: 161
-------------------------------------------------------------------------------
                             Rejoice in the Fire of Mans Demise - 3iob
-------------------------------------------------------------------------------
Tabbed by:h2owiththepower and boberuski
E-mail: nferkey@yahoo.com

Tuning:Standard
We decided to give this song to you in three chunks, since it's really just three riffs 
and harmonys
Riff 1
e|---------------------------------------------------------------------------|
B|---------------------------------------------------------------------------|
G|---------------------------------------------------------------------------|
D|---------------------------------------------------------------------------|
A|-8-10-11-10-8-10--10-11-10----8----10-11-10-8----8-10-8--------------------|
E|-----------------------------------------------11--------------------------|
Riff 2
e|---------------------------------------------------------------------------|
B|---------------------------------------------------------------------------|
G|---------------------------------------------------------------------------|
D|---------8-----------------------------8-----------------------------------|
A|-8-10-11---11-10-8-10-11-10----8-10-11---11-10-----------------------------|
E|---------------------------------------------------------------------------|
Riff 2 Harmony
e|---------------------------------------------------------------------------|
B|---------------------------------------------------------------------------|
G|---------------------------------------------------------------------------|
D|----8-10-11-10-8----8-10-8----8-10-11-10-8---------------------------------|
A|-11--------------11--------11----------------------------------------------|
E|---------------------------------------------------------------------------|
Riff 3
e|---------------------------------------------------------------------------|
B|---------------------------------------------------------------------------|
G|---------8-----------------8-----------------8-----------------------------|
D|-8-10-11---11-10---8-10-11---11-10---8-10-11---11-10--10-8-----------------|
A|-----------------------------------------------------------11-11-----------|
E|---------------------------------------------------------------------------|
Riff 3 Harmony
e|---------------------------------------------------------------------------|
B|---------------------------------------------------------------------------|
G|----8-10-11-10-8-----8-10-11-10-8------8-10-11-10-8---8--------------------|
D|-11---------------11----------------11------------------11-10-10-----------|
A|---------------------------------------------------------------------------|
E|---------------------------------------------------------------------------|
Backing chords in the beginning and outro. Just listen for the rhythm and you'll be fine.
e|---------------------------------------------------------------------------|
B|---------------------------------------------------------------------------|
G|---------------------------------------------------------------------------|
D|--10------8---10-----------------------------------------------------------|
A|--8-------6---8------------------------------------------------------------|
E|---------------------------------------------------------------------------|


************************************

| /   slide up
| \   slide down
| h   hammer-on
| p   pull-off
| ~   vibrato
| +   harmonic
| x   Mute note
| b   Bend
| pb  Pre-bend
| br  Bend release
| pbr Pre-bend release
| brb Bend release bend

************************************
Добавлено: 01.07.2013
Другие материалы по этой песне:
  • Аккорды и текст

Страница создана 01.07.2013
http://primanota.ru/3-inches-of-blood/rejoice-in-the-fires-of-mans-demise-chords.htm
Привет, Гость.
Предлагаем пройти революционный курс по гитаре.
Подарок от PrimaNota.Ru, забирай!