PrimaNota.ru - самый крупный в мире бесплатный архив песенных текстов, аккордов, табулатур и нот


3 Feet Smaller - Tonight - аккорды и текст, таба, видео

Регистрация Запомнить меня
Войти через:  Facebook Google Twitter Vk Yandex Mail.ru

3 Feet Smaller - Tonight - аккорды и текст, таба, видео

Печатать
Просмотров: 652
Авторы музыки: Marcus Smaller, Frank Schachinger
Авторы текста: Marcus Smaller
Tonight
3 Feet Smaller
-----------------------------------------------------------------------------
                             Tonight - 3 Feet Smaller
-----------------------------------------------------------------------------
Tabbed by: Bussibärli
Email: chris_3617@gmx.net
Tuning: Half-Step Down
Update: 5 July 2009 (lyrics, Em)

Chords used:
e|--3----3-----3----3-----3----------|
B|--3----3-----3----3-----3----------|
G|--0----2-----0----0-----2----------|
D|--2----0-----2----0-----0----------|
A|--2----------3----2-----0----------|
E|------------------3-----2----------|
    Em7  Dsus4  C    G    D/F#

Intro:
e-----------------------------------------|
B------3~------3~--------3~------3-----3~-|
G----0-------2---------0-------0-----2----|
D--2-------0-----------------------0------|
A--------------------3--------------------|
E----------------------------3------------|

[play Intro]
The melodies are fading while we sing
I'm almost alone
Cuz I won't let you go

Touch the perfect circle we call home
I'm almost alone
Cuz I won't let you go

e--------------------|
B-------3~------3~---|
G-----0-------2------|  x2 Catch my heart when it's about to fall
D-----------0--------|     Make me feel like I'm something special
A---3----------------|
E--------------------|


             Tonight
[play intro] Tonight
             Tonight
             Tonight

Em7                              Dsus4
The melodies are fading while we sing
           C
I'm almost all alone
      G             D/F#
Cuz I won't let you go

Em7                                   Dsus4
I'll lay here by your side as long as you(as long as you)
C
Want me to
   G           D/F#
So don't let me go

C                          Dsus4
Take your hands and heal my broken soul
C                    Dsus4
Make me feel like I'm something special (something special)

  Em7
Tonight
(Let's stop breathing)
  C
Tonight
(I'm all alone now)
  G
Tonight
(I won't come down)
  D/F#
Tonight
(I'm all alone)

e--------------------|
B-------3~------3~---|
G-----0-------2------|  x2 Catch my life when it's about to fall
D-----------0--------|     Make me feel like I'm something special
A---3----------------|
E--------------------|

[Drum with your hand on your guitar or play dead notes]
e--x-x-x-x---------------|
B--x-x-x-x---------------|
G--x-x-x-x--or drum------|   Yesterday we cursed today              
D--x-x-x-x---------------|   But tomorrow we're still the same    
A--x-x x-x---------------|                  x2
E--x-x-x-x---------------|
   ~dead
    notes~



Now play:
     Yesterday we cursed   today
E----x-----x------x----------x---------|
B----x-----x------x----------x---------|
G----9-----9------6----------9---------|
D----7-----9------7----------9---------|
A----0-----7------7----------7---------|
E----0-----0------5----------0---------|
    Asus2  E      A          E
But tomorrow we're still the same
E-----x----x--------------------x-------x---|
B-----x----x--------------------x-------x---|
G-----9----9--------------------6-------9---|
D-----7----9--------------------7-------9---|
A-----0----7--------------------7-------7---|
E-----0----0--------------------5-------0---|
     Asus2 E                    A       E

If you are a beginner you can also play the regular chords:
Asus2 002200, E 022100, A 002220, E 022100


play it til the end and then strum only Asus2 for that Staccato sound!

As an outro you could play the intro and end on G strum.

I know this is not the way Marcus Smaller plays it, but it is accurate and it's easier 
play than what I have seen so far.

Do not forget to rate + comment + add me. :)

For the strumming pattern or the dead notes/drum part watch my video.
http://www.youtube.com/watch?v=zhnnE_O3UjQ

Have fun!

Bussibärli
Добавлено: 30.06.2012
Другие материалы по этой песне:
  • Аккорды и текст

Страница создана 28.02.2012
http://primanota.ru/3-feet-smaller/tonight-chords.htm
Привет, Гость.
Предлагаем пройти революционный курс по гитаре.
Подарок от PrimaNota.Ru, забирай!