PrimaNota.ru - самый крупный в мире бесплатный архив песенных текстов, аккордов, табулатур и нот


3 Feet Smaller - Strike Back - таба, бас-таба, видео

Регистрация Запомнить меня
Войти через:  Facebook Google Twitter Vk Yandex Mail.ru

3 Feet Smaller - Strike Back - таба, бас-таба, видео

Печатать
Просмотров: 367
Авторы музыки: Marcus Smaller, Frank Schachinger, Stefan Wisgrill
Авторы текста: Marcus Smaller
Strike Back - 3 Feet Smaller

Record: 3rd Strike




Intro/Verse

e||--x-x-x-x---x-x-x---x--------x-x-x-x---x-x-x---x---||
B||--x-x-x-x---x-x-x---x--------x-x-x-x---x-x-x---x---||
G||--x-x-x-x---x-x-x---x--------x-x-x-x---x-x-x---x---||
D||--6-6-6-6---7-7-7---6--------6-6-6-6---7-7-7---6---||
A||--7-7-7-7---7-7-7---7--------7-7-7-7---7-7-7---7---||
E||--x-x-x-x---x-x-x---x--------x-x-x-x---x-x-x---x---||

e||--x-x-x-x---x-x-x---x--------x-x-x-x---x-x-x---x---||
B||--x-x-x-x---x-x-x---x--------x-x-x-x---x-x-x---x---||
G||--x-x-x-x---x-x-x---x--------x-x-x-x---x-x-x---x---||
D||--6-6-6-6---7-7-7---6--------6-6-6-6---7-7-7---6---||
A||--4-4-4-4---4-4-4---4--------4-4-4-4---4-4-4---4---||
E||--x-x-x-x---x-x-x---x--------x-x-x-x---x-x-x---x---||


Play this Intro-Part up to chorus...




Chorus 

e||--x-x-x-x---2-2-2-2----0-0-0-0---4-4---2-2---||
B||--x-x-x-x---2-2-2-2----0-0-0-0---4-4---2-2---||
G||--2-2-2-2---4-4-4-4----0-0-0-0---6-6---4-4---||
D||--2-2-2-2---4-4-4-4----2-2-2-2---6-6---4-4---||
A||--0-0-0-0---2-2-2-2----2-2-2-2---4-4---2-2---||
E||--x-x-x-X---x-x-x-x----0-0-0-0---x-x---x-x---||

e||--x-x-x-x---2-2-2-2----0-0-0-0---4-4---2-2-----x-x-x-x-x-x-x-x---2-2-2-2-2-2-2-2---||
B||--x-x-x-x---2-2-2-2----0-0-0-0---4-4---2-2-----x-x-x-x-x-x-x-x---2-2-2-2-2-2-2-2---||
G||--2-2-2-2---4-4-4-4----0-0-0-0---6-6---4-4-----2-2-2-2-2-2-2-2---4-4-4-4-4-4-4-4---||
D||--2-2-2-2---4-4-4-4----2-2-2-2---6-6---4-4-----2-2-2-2-2-2-2-2---4-4-4-4-4-4-4-4---||
A||--0-0-0-0---2-2-2-2----2-2-2-2---4-4---2-2-----0-0-0-0-0-0-0-0---2-2-2-2-2-2-2-2---||
E||--x-x-x-X---x-x-x-x----0-0-0-0---x-x---x-x-----x-x-x-x-x-x-x-x---x-x-x-x-x-x-x-x---||



Intro/Verse

Play this Intro-Part up to chorus...





Bridge

e||--0-0-0-0-0-0-0-0---4-4-4-4-4-4-4-4---||
B||--0-0-0-0-0-0-0-0---4-4-4-4-4-4-4-4---||
G||--0-0-0-0-0-0-0-0---6-6-6-6-6-6-6-6---||
D||--2-2-2-2-2-2-2-2---6-6-6-6-6-6-6-6---||  play this 3 times
A||--2-2-2-2-2-2-2-2---4-4-4-4-4-4-4-4---||
E||--0-0-0-0-0-0-0-0---x-x-x-x-x-x-x-x---||


Bridge end

e||--0-0-0-0-0-0-0-0---4-4-4-4-4-4-4-4---5-5-5-5-5-5-5-5---5-5-5-5---5-5-5-5---||
B||--0-0-0-0-0-0-0-0---4-4-4-4-4-4-4-4---5-5-5-5-5-5-5-5---5-5-5-5---5-5-5-5---||
G||--0-0-0-0-0-0-0-0---6-6-6-6-6-6-6-6---5-5-5-5-5-5-5-5---5-5-5-5---5-5-5-5---||
D||--2-2-2-2-2-2-2-2---6-6-6-6-6-6-6-6---7-7-7-7-7-7-7-7---7-7-7-7---7-7-7-7---||  
A||--2-2-2-2-2-2-2-2---4-4-4-4-4-4-4-4---7-7-7-7-7-7-7-7---x-x-x-x---7-7-7-7---||
E||--0-0-0-0-0-0-0-0---x-x-x-x-x-x-x-x---5-5-5-5-5-5-5-5---7-7-7-7---5-5-5-5---||



Intro/Verse

Play this Intro-Part up to chorus...



Chorus


End... (part of the chorus


e||--0-0-0-0-0-0-0-0---4-4-4-4-4-4-4-4---||
B||--0-0-0-0-0-0-0-0---4-4-4-4-4-4-4-4---||
G||--0-0-0-0-0-0-0-0---6-6-6-6-6-6-6-6---||
D||--2-2-2-2-2-2-2-2---6-6-6-6-6-6-6-6---||  play this 4 times
A||--2-2-2-2-2-2-2-2---4-4-4-4-4-4-4-4---||
E||--0-0-0-0-0-0-0-0---x-x-x-x-x-x-x-x---||



e||--x-x-x-x---x-x-x---x---||
B||--x-x-x-x---x-x-x---x---||
G||--x-x-x-x---x-x-x---x---||
D||--6-6-6-6---7-7-7---6---||
A||--7-7-7-7---7-7-7---7---||
E||--x-x-x-x---x-x-x---x---||





© MaestroMing
Добавлено: 14.03.2012
Другие материалы по этой песне:
  • Аккорды и текст

Страница создана 14.03.2012
http://primanota.ru/3-feet-smaller/strike-back-chords.htm
Привет, Гость.
Предлагаем пройти революционный курс по гитаре.
Подарок от PrimaNota.Ru, забирай!