PrimaNota.ru - самый крупный в мире бесплатный архив песенных текстов, аккордов, табулатур и нот


3 Feet Smaller - Adorable - аккорды и текст, таба, видео

Регистрация Запомнить меня
Войти через:  Facebook Google Twitter Vk Yandex Mail.ru

3 Feet Smaller - Adorable - аккорды и текст, таба, видео

Печатать
Просмотров: 678
Adorable
3 Feet Smaller
-----------------------------------------------------------------------------
                             Adorable - Alone & Acoustic
                        (by Marcus Smaller from 3 Feet Smaller)
-----------------------------------------------------------------------------
Tabbed by: madoxx
Email: chris_3617@gmx.net

I tabbed it by ear together with Theresa (thx ^^)
Pls rate and post a comment ;)

Tuning: Standard (Hallelujah ;) )

Update on 24 Feburary 09: I got 2 stars and did not know why but then i noticed the 
the Em chord was wrong tabbed out. Now its correct!

For the strummig pattern check my Cover on myspace
www.myspace.com/chrismusiclife90
Chords Used:

e|--3------3------3----------------------------------------------|
B|--3------3------3----------------------------------------------|
G|--0------0------2----------------------------------------------|
D|--2------0------0----------------------------------------------|
A|--2------2------0----------------------------------------------|
E|---------3------2----------------------------------------------|
    Em     G      D/F#

Verse
Em G D/F#

Em
Stroke over my face
    G
and then take me some place
    D/F#            Em
whatever you say I obey.

...

Pre-Chorus
G      Em             D/F
You're more than just adorable

Chorus
Em G D/F Em


Em       G
When the rain sets in
         D/F      Em
and runs down the drain
       G     D/F
then I start wondering
          Em
If you're crying or is it just raining?, just raining.

Then pick the first 3 strings of  Em in Arpeggio style ;)

Verse
the same

Pre Chorus

Chorus

Bridge
Em G x2 D/F Em

Em
The sound of your heart
                  G
the sound of your pain
make me
Em
the sound of your heart
G
the sound of your pain
D/F                     Em
make me crawl away from here


Em
Hold me
G
Gently

Chorus x2

Em
Just raining x3

Pre-Chorus


End.

Alone & Acoustic's official website:

http://www.myspace.com/aloneandacoustic
Добавлено: 20.06.2012
Другие материалы по этой песне:
  • Аккорды и текст

Страница создана 20.06.2012
http://primanota.ru/3-feet-smaller/adorable-chords.htm
Привет, Гость.
Предлагаем пройти революционный курс по гитаре.
Подарок от PrimaNota.Ru, забирай!