PrimaNota.ru - самый крупный в мире бесплатный архив песенных текстов, аккордов, табулатур и нот


3 Doors Down - To be like that - таба, видео

Регистрация Запомнить меня
Войти через:  Facebook Google Twitter Vk Yandex Mail.ru

3 Doors Down - To be like that - таба, видео

Печатать
Просмотров: 139


this is just the intro...once i get the rest ill post it.

e ----------3--------------0-----------------0
b ------------3--------3-----3-------------3--
g ------0-------0--------2-----2---------0----
d --------0-------0--0-----------0-----x------
a -----------------------------------2--------
e ----3----------------------------0----------

  ---------------------------------------0---
  -3-----------------------------------3---3-
  --0--------------------------------0------0
  ---------------------------------2---------
  -------------------------------3-----------
  -----------------------------x-------------
  (x6) and that is the whole intro

    *** if you have any problems email me at
        gc387@aol.com and title your email
        as guitar help *** 

Добавлено: 11.01.2014
Другие материалы по этой песне:
  • Аккорды и текст

Страница создана 11.01.2014
http://primanota.ru/3-doors-down/to-be-like-that-chords.htm
Привет, Гость.
Предлагаем пройти революционный курс по гитаре.
Подарок от PrimaNota.Ru, забирай!