PrimaNota.ru - самый крупный в мире бесплатный архив песенных текстов, аккордов, табулатур и нот


3 Doors Down - If I Could Be Like That - аккорды и текст, таба, бас-таба, видео

Регистрация Запомнить меня
Войти через:  Facebook Google Twitter Vk Yandex Mail.ru

3 Doors Down - If I Could Be Like That - аккорды и текст, таба, бас-таба, видео

Печатать
Просмотров: 469
If I Could Be Like That
3 Doors Down
-------------------------------------------------------------------------------
                  If I could be like that - 3 Doors Down
-------------------------------------------------------------------------------
Tabbed by: RockStarTech (RST_creations)
Email: rst_creations@yahoo.com

=============================================================


Note: Id suggest that you have 2 guitars to play this song...
        Guitar 1 will keep plucking untill the chorus comes and guitar 2 will be strumming...
(at the first part... Guitar 2 plays softly)

Guitar #1 Keep playing until chorus. then play chords
e------3------------------0---------------0-------------0---|
B--------3-----------3------3-----------3---3---------3--3--|
G--0-------0-----------2------2-----0---------0-----0-----0-|
D----0-------0-0----------------0-----0-----------2---------|
A---------------------------------2-------------3-----------|
E-3---------------------------------------------------------| return


Guitar 2 @ all chords
Verse 1:
G                              D
He spends his nights in California
Em                               C
watching the stars on the big screen
G                              D
Then he lies awake and he wonders
Em                 C
Why can't that be me.
G                                  D
Cause in his life he's filled with all these good intentions
Em                                 C
He's left a lot of things he'd rather not mention, right now
G                         D
And just before he says goodnight
Em                    C
He looks up with a little smile at me and he says

Chorus:
G                  D
If I could be like that
                  Em
I would give anything
                   C
Just to live one day
               G
In those shoes
                    D
If I could be like that
              Em
What would I do
              C
What would I do


Instru (G D Em C)

Now and dreams we run.

Verse 2:
Guitar #1 Keep playing until chorus. then play chords
e------3------------------0---------------0-------------0---|
B--------3-----------3------3-----------3---3---------3--3--|
G--0-------0-----------2------2-----0---------0-----0-----0-|
D----0-------0-0----------------0-----0-----------2---------|
A---------------------------------2-------------3-----------|
E-3---------------------------------------------------------| return

G                              D
She spends her days up in the North Park
Em                      C
Watchin people as they pass
G                            D
And all she wants is just a little peice of this dream
Em                  C
Is that to much to ask
G ~                     D ~              Em          C ~
With a safe home, and a warm bed, on a quiet little street
G                             D
All she wants is just that something to hold on to
Em               C      (hammer down C @ YEAH)
That's all she needs  YEAH!


Chorus:
G                  D
If I could be like that
                  Em
I would give anything
                   C
Just to live one day
               G
In those shoes
                    D
If I could be like that
              Em
What would I do
              C
What would I do


Instru (G D Em C)

I'm falling into this, in dreams we run away.


Chorus:
G                  D
If I could be like that
                  Em
I would give anything
                   C
Just to live one day
               G
In those shoes
                    D
If I could be like that
              Em
What would I do
              C
What would I do


Instru (G D Em C)

Falling in.
I feel I am falling in to this again 


++++

Thats all.. add nyo ako sa Friendster: rst_creations@yahoo.com

Pls RATE!
Добавлено: 16.06.2012
Другие материалы по этой песне:

Страница создана 22.02.2012
http://primanota.ru/3-doors-down/if-i-could-be-like-that-chords.htm
Привет, Гость.
Предлагаем пройти революционный курс по гитаре.
Подарок от PrimaNota.Ru, забирай!