PrimaNota.ru - самый крупный в мире бесплатный архив песенных текстов, аккордов, табулатур и нот


3 Doors Down - Away From The Sun - аккорды и текст, таба, бас-таба, перевод, видео

Регистрация Запомнить меня
Войти через:  Facebook Google Twitter Vk Yandex Mail.ru

3 Doors Down - Away From The Sun - аккорды и текст, таба, бас-таба, перевод, видео

Печатать
Просмотров: 342
Авторы: Brad Arnold, Chris Henderson, Matt Roberts, Todd Harrell

Away From The Sun
3 Doors Down
		   3 Doors Down – Away from the Sun
TAB WRITTEN BY YomY

This is really good song, it seams it's hard to play, but it's not, it's so simple...
INTRO is the same like VERSE I just put it there because of the looks :-)


INTRO
|---------------------------------------------------------------0-->
|---1-----1-----1---1-----0h1-------1-----1-----1---1-----0---3---->
|-----0-----0---------0-------0-------0-----0---------0-----0------>
|-3-----3-----3---2-----2-------2---------------------------------->
|---------------------------------3-----3-----3---2-----2---------->
|------------------------------------------------------------------>

>---------------------------------------------------------------------|
>---1-----1-----1---1-----0h1-------3---1---0---3---1---0----1--------|
>-----0-----0---------0-------0-------0---0---0---0---0----0----------|
>-3-----3-----3---2-----2-------2-------------------------------------|
>---------------------------------3-----------------------------------|
>---------------------------------------------------------------------|


VERSE
|---------------------------------------------------------------0-->
|---1-----1-----1---1-----0h1-------1-----1-----1---1-----0---3---->
|-----0-----0---------0-------0-------0-----0---------0-----0------>
|-3-----3-----3---2-----2-------2---------------------------------->
|---------------------------------3-----3-----3---2-----2---------->
|------------------------------------------------------------------>

>---------------------------------------------------------------------|
>---1-----1-----1---1-----0h1-------3---1---0---3---1---0----1--------|
>-----0-----0---------0-------0-------0---0---0---0---0----0----------|
>-3-----3-----3---2-----2-------2-------------------------------------|
>---------------------------------3-----------------------------------|
>---------------------------------------------------------------------|

CHORUS
|------------------------------------------------------>
|------------------------------------------------------>
|-----------0-----0--------------0--------------------->
|-3-3-----0-----0------3-3-----0-----------------3-3--->
|-3-3---3-----2-----3--3-3---3-----2--2s3s2------3-3--->
|-1-1------------------1-1-----------------------1-1--->

>------------------------------------------------|
>------------------------------------------------|
>------------0-----0-----------------------------|
>----------0-----0-------3-3----------0----2--3--|
>--------3-----2-----3---3-3-----3------------3--|
>------------------------1-1------------------1--|

+++Chorus-Continued to Verse:

|---------------------------------------------------------------0-->
|---1-----1-----1---1-----0h1-------1-----1-----1---1-----0---3---->
|-----0-----0---------0-------0-------0-----0---------0-----0------>
|-3-----3-----3---2-----2-------2---------------------------------->
|---------------------------------3-----3-----3---2-----2---------->
|------------------------------------------------------------------>

>---------------------------------------------------------------------|
>---1-----1-----1---1-----0h1-------3---1---0---3---1---0----1--------|
>-----0-----0---------0-------0-------0---0---0---0---0----0----------|
>-3-----3-----3---2-----2-------2-------------------------------------|
>---------------------------------3-----------------------------------|
>---------------------------------------------------------------------|

GTR 1
|-0--------3--------1------3------|
|-1--------1--------1------3------|
|-2--------0--------2------0------|
|-2--------0--------3------0------|
|----------2--------3------2------|
|----------3--------1------3------|

GTR 2
|---8h10--8p0--0h8--10---|
|---8-----8----8----8----|
|------------------------|
|------------------------|
|------------------------|
|------------------------|


It's down to this
I've got to make this life make sense
Can anyone do what I've done?
I've missed the life I've missed the colors of the world
Can anyone tell where I am?

Cause now again I've found myself so far down away from the sun
That shines into the darkest place I'm so far down away from the sun again

Away from the sun again

I'm over this I'm tired of living in a dark
Can anyone see me down here?
The feeling's gone, there's nothing left to lead me home
Back into the world I've known

Cause now again I've found myself so far down away from the sun
That shines into the darkest place I'm so far down away from the sun
That shines the life away from me to find my way back into the arms
That cares about the ones like me I'm so far down away from the sun again

It's down to this
I've got to make this life make sense
And now I can't tell what I've done
And now again I've found myself so far down, away from the sun
That shines the life away from me

Cause now again I've found myself so far down away from the sun
That shines into the darkest place I'm so far down away from the sun
That shines the life away from me to find my way back into the arms
That care about the ones like me I'm so far down away from the sun again     
Добавлено: 13.10.2013
Другие материалы по этой песне:

Страница создана 26.03.2012
http://primanota.ru/3-doors-down/away-from-the-sun-chords.htm
Привет, Гость.
Предлагаем пройти революционный курс по гитаре.
Подарок от PrimaNota.Ru, забирай!