PrimaNota.ru - самый крупный в мире бесплатный архив песенных текстов, аккордов, табулатур и нот


3 Colours Red - Pure Album (album) - таба, бас-таба, видео

Регистрация Запомнить меня
Войти через:  Facebook Google Twitter Vk Yandex Mail.ru

3 Colours Red - Pure Album (album) - таба, бас-таба, видео

Печатать
Просмотров: 114
3 Colours Red
PURE Album
Guitar
Tune Eb, Ab, Db, Gb, Bb, eb
Tabbed by Philip Tweedie

I've added lyrics to give some sense of timing but as usual listen to album for exact timings etc
Some parts were hard for me to work out and corrections are welcome

1.  Pure
2.  This Is My Hollywood
3.  Nerve Gas
4.  Nuclear Holiday
5.  Copper Girl
6.  Sixty Mile Smile
7.  Sunny in England
8.  Alright Ma
9.  Mental Blocks
10. Fit Boy and Faint Girl
11. Halfway up the Downs
12. Hateslick
13. Love's Cradle
14. Aniseed

__________________________________________________________________________________________________

1.  Pure

Intro Feedback (notes are sound of feedback not frets to achieve it)
e|-----------------|-----------------|-----------------|-----------------|
B|-7---------------|-(7)-------------|-(7)-------------|-(7)-------------|
G|-----------------|-----------------|--4--------------|-(4)-------------|
D|-----------------|-----------------|-----------------|-----------------|
A|-----------------|-----------------|-----------------|-----------------|
E|-----------------|-----------------|-----------------|-----------------|

(Feedback continues over bass intro)

Verse 1
"When the one thing in your life comes crashing What you gonna do?"
"When naivety was my energy power was your tool"
"Then you broke me down like diamonds, and turned my blood to rust"
"Abuser of an innocence, your real love was lust"
e|-----------------|-----------------|-----------------|-----------------|
B|-----------------|-----------------|-----------------|-----------------|
G|-x-7-7-7-7/9-9-9-|-4-4-4-4-4-4-4-4-|-x-7-7-7-7/9-9-9-|-4-4-4-4-4-4-4-4-| x4
D|-x-7-7-7-7/9-9-9-|-4-4-4-4-4-4-4-4-|-x-7-7-7-7/9-9-9-|-4-4-4-4-4-4-4-4-|
A|-x-5-5-5-5/7-7-7-|-2-2-2-2-2-2-2-2-|-x-5-5-5-5/7-7-7-|-2-2-2-2-2-2-2-2-|
E|-----------------|-----------------|-----------------|-----------------|

Lead Gtr "then you broke me..." (play with trill)
e|-------------------------|------------------------|
B|-/15---15---15/17---17---|-12---12---10h-12---12--|
G|-------------------------|------------------------| x4
D|-------------------------|------------------------|
A|-------------------------|------------------------|
E|-------------------------|------------------------|

Break
"'Cause you had to be something, to be someone"  (all notes ring out)
e|-----------------|-----------------|-------------2---|-----------------|
B|-------------3---|---(let ring)----|-----------------|---(let ring)----|
G|-----2-----------|-----------------|-----3-----------|-----------------|
D|-0-------0-------|-----------------|-4-------4-------|-----------------|
A|-----------------|-----------------|-----------------|-----------------|
E|-----------------|-----------------|-----------------|-----------------|

Verse 2
"And play, play, play, play games with heads, got the chills when you past go"
"And you had me like a remote, all you wanted was control"
e|-----------------|-----------------|-----------------|-----------------|
B|-----------------|-----------------|-----------------|-----------------|
G|-x-7-7-7-7/9-9-9-|-4-4-4-4-4-4-4-4-|-x-7-7-7-7/9-9-9-|-4-4-4-4-4-4-4-4-| x2
D|-x-7-7-7-7/9-9-9-|-4-4-4-4-4-4-4-4-|-x-7-7-7-7/9-9-9-|-4-4-4-4-4-4-4-4-|
A|-x-5-5-5-5/7-7-7-|-2-2-2-2-2-2-2-2-|-x-5-5-5-5/7-7-7-|-2-2-2-2-2-2-2-2-|
E|-----------------|-----------------|-----------------|-----------------|

Break
"'Cause you had to be something, to be someone"  (all notes ring out)
e|-----------------|-----------------|-------------2---|-----------------|
B|-------------3---|---(let ring)----|-----------------|---(let ring)----|
G|-----2-----------|-----------------|-----3-----------|-----------------|
D|-0-------0-------|-----------------|-4-------4-------|-----------------|
A|-----------------|-----------------|-----------------|-----------------|
E|-----------------|-----------------|-----------------|-----------------|

Pre chorus
"And here are the terms of which I live"
"I'll hate who I want and I'll give when I give"
e|-----------------|-----------------|-----------------|-----------------|
B|-----------------|-----------------|-----------------|-----------------|
G|-5-5-5-5-5-5-5-5-|-5-5-5-5-5-------|-5-5-5-5-5-5-5-5-|-5-5-5-5-5-------|
D|-5-5-5-5-5-5-5-5-|-5-5-5-5-5--5-3--|-5-5-5-5-5-5-5-5-|-5-5-5-5-5--5-3--|
A|-3-3-3-3-3-3-3-3-|-3-3-3-3-3--5-3--|-3-3-3-3-3-3-3-3-|-3-3-3-3-3--5-3--|
E|-----------------|------------3-1--|-----------------|------------3-1--|

Chorus
"And just because you're insecure, doesn't mean you couldn't be pure"
"Doesn't mean you couldn't be pure"
Guitar 1
e|-----------------|-----------------|-----------------|-----------------|
B|-----------------|-----------------|-----------------|-----------------|
G|-4-4-4-4-4-4-4-4-|-4-4-4-4-4-4-4-4-|-7-7-7-7-7-7-7-7-|-5-5-5-5-5-5-5-5-|
D|-4-4-4-4-4-4-4-4-|-4-4-4-4-4-4-4-4-|-7-7-7-7-7-7-7-7-|-5-5-5-5-5-5-5-5-|
A|-2-2-2-2-2-2-2-2-|-2-2-2-2-2-2-2-2-|-5-5-5-5-5-5-5-5-|-3-3-3-3-3-3-3-3-|
E|-----------------|-----------------|-----------------|-----------------|
                                                                         | x2
Guitar 2                                                                 |
e|-----------------|-----------------|-----------------|-----------------|
B|-----------------|-----------------|-----------------|-----------------|
G|-4-4-4-4-4-4-4-4-|-4-4-4-4-4-4-4-4-|-4-4-4-4-4-4-4-4-|-4-4-4-4-4-4-4-4-|
D|-----------------|-----------------|-----------------|-----------------|
A|-2-2-2-2-2-2-2-2-|-2-2-2-2-2-2-2-2-|-2-2-2-2-2-2-2-2-|-2-2-2-2-2-2-2-2-|
E|-----------------|-----------------|-----------------|-----------------|

e|-----------------|-----------------|-----------------|-----------------|
B|-7---------------|---(    let   ring   out   )-------|-----------------|
G|-4---------------|---(    let   ring   out   )-------|-----------------|
D|-----------------|-----------------|-----------------|-----------------|
A|-----------------|-----------------|-----------------|-----------------|
E|-----------------|-----------------|-----------------|-----------------|

Solo
Guitar 1
e|-----------------|-----------------|-----------------|-----------------|
B|-----------------|-----------------|-----------------|-----------------|
G|-4-4-4-4-4-4-4-4-|-4-4-4-4-4-4-4-4-|-4-4-4-4-4-4-4-4-|-----------------|
D|-4-4-4-4-4-4-4-4-|-4-4-4-4-4-4-4-4-|-4-4-4-4-4-4-4-4-|-2---4---5---7---|
A|-2-2-2-2-2-2-2-2-|-2-2-2-2-2-2-2-2-|-2-2-2-2-2-2-2-2-|-2---4---5---7---|
E|-----------------|-----------------|-----------------|-0---2---3---5---|
                                                                         |
Guitar 2                                                                 |
e|-----------------|-----------------|-----------------|-----------------|
B|-----------------|-----------------|-----------------|-----------------|
G|-8------9-----8--|------9---8------|-11---8------11--|-14--13--11--9---|
D|---11-9----------|-11-9-------11-9-|--------11-9-----|-----------------|
A|-----------------|-----------------|-----------------|-----------------|
E|-----------------|-----------------|-----------------|-----------------|

Guitar 1
e|-----------------|-----------------|-----------------|----------------------|
B|-----------------|-----------------|-----------------|----------------------|
G|-4-4-4-4-4-4-4-4-|-4-4-4-4-4-4-4-4-|-4-4-4-4-4-4-4-4-|----------------7-8-9-|
D|-4-4-4-4-4-4-4-4-|-4-4-4-4-4-4-4-4-|-4-4-4-4-4-4-4-4-|-2---4---5---7--7-8-9-|
A|-2-2-2-2-2-2-2-2-|-2-2-2-2-2-2-2-2-|-2-2-2-2-2-2-2-2-|-2---4---5---7--5-6-7-|
E|-----------------|-----------------|-----------------|-0---2---3---5--------|
                                                                              |
Guitar 2                                                                      |
e|-----------------|-----------------|-----------------|----------------------|
B|-----------------|-----------------|-----------------|----------------------|
G|-8------9-----8--|------9---8------|-11---8------11--|-14--13--11--9--8-9-11|
D|---11-9----------|-11-9-------11-9-|--------11-9-----|----------------------|
A|-----------------|-----------------|-----------------|----------------------|
E|-----------------|-----------------|-----------------|----------------------|

Bridge
"One lie for one lie"
e|-----------------|-----------------|-----------------|-----------------|
B|-----------------|-----------------|-----------------|-----------------|
G|-----------------|-----------------|-----------------|-----------------|
D|-2---------------|-4---------------|-5---------------|-----------------|
A|-2---------------|-4---------------|-5---------------|-----------------|
E|-0---------------|-2---------------|-3---------------|-Pickslide-------|

"And now I bet you're happy, And you let it go so soon"
Guitar 1 pan left
e|-----------------|---------------------|
B|-3-3-------------|-12-12-12------------|
G|-2-2-------------|-11-11-11------------|
D|-0-0-------------|-7--7--7-------------|
A|-----------------|---------------------|
E|-----------------|---------------------|
                                         |x3
Guitar 2 pan right                       | 
e|-----------------|---------------------|
B|---------5-5-----|-----------12-12-12--|
G|---------4-4-----|-----------11-11-11--|
D|---------2-2-----|-----------7--7--7---|
A|-----------------|---------------------|
E|-----------------|---------------------|

Both
e|-----------------|-----------------|
B|-----------------|-----------------|
G|-7---------------|-7-7-----7-7-7-7-|
D|-7---------------|-7-7-----7-7-7-7-|
A|-5---------------|-5-5-----5-5-5-5-|
E|-----------------|-----------------|

Break
"'Cause you had to be something, to be someone"  (all notes ring out)
Guitar 1
e|-----------------|-----------------|-------------2---|-----------------|
B|-------------3---|---(let ring)----|-----------------|---(let ring)----|
G|-----2-----------|-----------------|-----3-----------|-----------------|
D|-0-------0-------|-----------------|-4-------4-------|-----------------|
A|-----------------|-----------------|-----------------|-----------------|
E|-----------------|-----------------|-----------------|-----------------|
                                                                         |
Guitar 2                                                                 |
e|-----------------|-----------------|-----------------|-----------------|
B|-----------------|-----------------|-6-6-6-6-6-6-6-6-|-6-6-6-6-6-6-6-6-|
G|-7-7-7-7-7-7-7-7-|-7-7-7-7-7-7-7-7-|-5-5-5-5-5-5-5-5-|-5-5-5-5-5-5-5-5-|
D|-7-7-7-7-7-7-7-7-|-7-7-7-7-7-7-7-7-|-3-3-3-3-3-3-3-3-|-3-3-3-3-3-3-3-3-|
A|-5-5-5-5-5-5-5-5-|-5-5-5-5-5-5-5-5-|-----------------|-----------------|
E|-----------------|-----------------|-----------------|-----------------|

Pre chorus
"And here are the terms of which I live"
"I'll hate who I want and I'll give when I give"
e|-----------------|-----------------|-----------------|-----------------|
B|-----------------|-----------------|-----------------|-----------------|
G|-5-5-5-5-5-5-5-5-|-5-5-5-5-5-------|-5-5-5-5-5-5-5-5-|-5-5-5-5-5-------|
D|-5-5-5-5-5-5-5-5-|-5-5-5-5-5--5-3--|-5-5-5-5-5-5-5-5-|-5-5-5-5-5--5-3--|
A|-3-3-3-3-3-3-3-3-|-3-3-3-3-3--5-3--|-3-3-3-3-3-3-3-3-|-3-3-3-3-3--5-3--|
E|-----------------|------------3-1--|-----------------|------------3-1--|

Chorus
"And just because you're insecure, doesn't mean you couldn't be pure"
"Doesn't mean you couldn't be pure"
"Doesn't mean you couldn't be pure"
"Doesn't mean you couldn't be pure"
"na, na na, na na na na, na, na na, na na na na"
Guitar 1
e|-----------------|-----------------|-----------------|-----------------|
B|-----------------|-----------------|-----------------|-----------------|
G|-4-4-4-4-4-4-4-4-|-4-4-4-4-4-4-4-4-|-7-7-7-7-7-7-7-7-|-5-5-5-5-5-5-5-5-|
D|-4-4-4-4-4-4-4-4-|-4-4-4-4-4-4-4-4-|-7-7-7-7-7-7-7-7-|-5-5-5-5-5-5-5-5-|
A|-2-2-2-2-2-2-2-2-|-2-2-2-2-2-2-2-2-|-5-5-5-5-5-5-5-5-|-3-3-3-3-3-3-3-3-|
E|-----------------|-----------------|-----------------|-----------------|
                                                                         | x6
Guitar 2                                                                 |
e|-----------------|-----------------|-----------------|-----------------|
B|-----------------|-----------------|-----------------|-----------------|
G|-4-4-4-4-4-4-4-4-|-4-4-4-4-4-4-4-4-|-4-4-4-4-4-4-4-4-|-4-4-4-4-4-4-4-4-|
D|-----------------|-----------------|-----------------|-----------------|
A|-2-2-2-2-2-2-2-2-|-2-2-2-2-2-2-2-2-|-2-2-2-2-2-2-2-2-|-2-2-2-2-2-2-2-2-|
E|-----------------|-----------------|-----------------|-----------------|

e|-----------------|
B|-----------------|
G|-4---------------|
D|-4---------------|
A|-2---------------|
E|-----------------|
__________________________________________________________________________________________________

2.  This Is My Hollywood

Intro
Guitar 1 ring out with feedback until verse
e|-0---------------|
B|-0---------------|
G|-0---------------|
D|-2---------------|
A|-2---------------|
E|-0---------------|

Guitar 2
e|-----------------|-7---------------|
B|--------(slow bend up/down)--------|
G|-----------------|-----------------|
D|-----------------|-----------------|
A|-----------------|-----------------|
E|-----------------|-----------------|

Verse 1 
"Is this success? Tuesday night and penniless"
"Sign on, chill out, skin up, It's your shout"
PM___________________________________
e|-----------------|-----------------|
B|-----------------|-----------------|
G|---------4-4-4-4-|-5-5-5-5---------| x4
D|-2-2-2-2-4-4-4-4-|-5-5-5-5-5-5-5-5-|
A|-2-2-2-2-2-2-2-2-|-3-3-3-3-5-5-5-5-|
E|-0-0-0-0---------|---------3-3-3-3-|

"Forgone, I am,                       In life, I'm damned"
Guitar 1
e|-----------------|-----------------|-----------------|-----------------|
B|-----------------|-----------------|-----------------|-----------------|
G|-4-4-4-4-4-4-4-4-|-4-4-4-4-4-4-4-4-|-5-5-5-5-5-5-5-5-|-7-7-7-7-7-7-7-7-|
D|-4-4-4-4-4-4-4-4-|-4-4-4-4-4-4-4-4-|-5-5-5-5-5-5-5-5-|-7-7-7-7-7-7-7-7-|
A|-2-2-2-2-2-2-2-2-|-2-2-2-2-2-2-2-2-|-3-3-3-3-3-3-3-3-|-5-5-5-5-5-5-5-5-|
E|-----------------|-----------------|-----------------|-----------------|
                                                                         |
Guitar 2                        a=11                                     |
e|-----------------|-----------------|-----------------|-----------------|
B|-----------------|-----------------|-----------------|-----------------|
G|-4---4-4-4-4-4-4-|/8---8-8--/a-a-a-|-9-9-9-9-9-9-9-9-|-7-7-7-7-7-7-7-7-|
D|-----------------|-----------------|-----------------|-----------------|
A|-2---2-2-2-2-2-2-|/6---6-6--/9-9-9-|-7-7-7-7-7-7-7-7-|-5-5-5-5-5-5-5-5-|
E|-----------------|-----------------|-----------------|-----------------|

Chorus
"This is like Hollywood,               All front, no depth, no good"
"This is my Hollywood,                 I'd run, I wish I could"
e|-----------------|-----------------|-----------------|-----------------|
B|-----------------|-----------------|-----------------|-----------------|
G|---------4-4-4-4-|-5-5-5-5---------|---------4-4-4-4-|-5-5-5-5-7-7-7-7-| x2
D|-2-2-2-2-4-4-4-4-|-5-5-5-5-5-5-5-5-|-2-2-2-2-4-4-4-4-|-5-5-5-5-7-7-7-7-|
A|-2-2-2-2-2-2-2-2-|-3-3-3-3-5-5-5-5-|-2-2-2-2-2-2-2-2-|-3-3-3-3-5-5-5-5-|
E|-0-0-0-0---------|---------3-3-3-3-|-0-0-0-0---------|-----------------|

Post chorus feed back until verse 2
e|-0---------------|
B|-0---------------|
G|-0---------------|
D|-2---------------|
A|-2---------------|
E|-0---------------|

Verse 2
"Too blind, not me, I've seen the scenery"
"Palm trees, blue skies, Blown out, snake eyes"
PM___________________________________
e|-----------------|-----------------|
B|-----------------|-----------------|
G|---------4-4-4-4-|-5-5-5-5---------| x4
D|-2-2-2-2-4-4-4-4-|-5-5-5-5-5-5-5-5-|
A|-2-2-2-2-2-2-2-2-|-3-3-3-3-5-5-5-5-|
E|-0-0-0-0---------|---------3-3-3-3-|

"You're not, I am,                     Is this too much To understand?"
Guitar 1
e|-----------------|-----------------|-----------------|-----------------|
B|-----------------|-----------------|-----------------|-----------------|
G|-4-4-4-4-4-4-4-4-|-4-4-4-4-4-4-4-4-|-5-5-5-5-5-5-5-5-|-7-7-7-7-7-7-7-7-|
D|-4-4-4-4-4-4-4-4-|-4-4-4-4-4-4-4-4-|-5-5-5-5-5-5-5-5-|-7-7-7-7-7-7-7-7-|
A|-2-2-2-2-2-2-2-2-|-2-2-2-2-2-2-2-2-|-3-3-3-3-3-3-3-3-|-5-5-5-5-5-5-5-5-|
E|-----------------|-----------------|-----------------|-----------------|
                                                                         |
Guitar 2                        a=11                                     |
e|-----------------|-----------------|-----------------|-----------------|
B|-----------------|-----------------|-----------------|-----------------|
G|-4---4-4-4-4-4-4-|/8---8-8--/a-a-a-|-9-9-9-9-9-9-9-9-|-7-7-7-7-7-7-7-7-|
D|-----------------|-----------------|-----------------|-----------------|
A|-2---2-2-2-2-2-2-|/6---6-6--/9-9-9-|-7-7-7-7-7-7-7-7-|-5-5-5-5-5-5-5-5-|
E|-----------------|-----------------|-----------------|-----------------|

Chorus
"This is like Hollywood,               All front, no depth, no good"
"This is my Hollywood,                 I'd run, I wish I could"
e|-----------------|-----------------|-----------------|-----------------|
B|-----------------|-----------------|-----------------|-----------------|
G|---------4-4-4-4-|-5-5-5-5---------|---------4-4-4-4-|-5-5-5-5-7-7-7-7-| x2
D|-2-2-2-2-4-4-4-4-|-5-5-5-5-5-5-5-5-|-2-2-2-2-4-4-4-4-|-5-5-5-5-7-7-7-7-|
A|-2-2-2-2-2-2-2-2-|-3-3-3-3-5-5-5-5-|-2-2-2-2-2-2-2-2-|-3-3-3-3-5-5-5-5-|
E|-0-0-0-0---------|---------3-3-3-3-|-0-0-0-0---------|-----------------|

Bridge
"Who wants to live in Hollywood?" 
"I don't think I could"
e|-1---------------|----------1------|-0---------------|----------0------|
B|-1---------------|----1---------1--|-0---------------|----0---------0--|
G|-2---------------|-------2---------|-1---------------|-------1---------| x2
D|-3---------------|-3---------------|-2---------------|-2---------------|
A|-3---------------|-----------------|-2---------------|-----------------|
E|-1---------------|-----------------|-0---------------|-----------------|

"You like to think you live, In a world so good"
e|-----------------|-----------------|-----------------|
B|-----------------|-----------------|-----------------|
G|-----------------|-----------------|-----------------|
D|-3-3---3-3---3-3-|--3---3-3---3-2--|-(2)-------------|
A|-3-3---3-3---3-3-|--3---3-3---3-2--|-(2)-------------|
E|-1-1---1-1---1-1-|--1---1-1---1-0--|-(0)-------------|

Phase/flange on..................off PM__________________________________
e|-----------------|-----------------|-----------------|-----------------|
B|-----------------|-----------------|-----------------|-----------------|
G|-7---------------|-----------------|-4-4-4-4-4-4-4-4-|-4-4-4-4-4-4-4-4-|
D|-7---------------|-6---------------|-4-4-4-4-4-4-4-4-|-4-4-4-4-4-4-4-4-|
A|-5---------------|-6---------------|-2-2-2-2-2-2-2-2-|-2-2-2-2-2-2-2-2-|
E|-----------------|-4---------------|-----------------|-----------------|

Solo
Guitar 1 PM______________________________________________________________
e|-----------------|-----------------|-----------------|-----------------|
B|-----------------|-----------------|-----------------|-----------------|
G|---------4-4-4-4-|-5-5-5-5---------|---------4-4-4-4-|-5-5-5-5---------|
D|-2-2-2-2-4-4-4-4-|-5-5-5-5-5-5-5-5-|-2-2-2-2-4-4-4-4-|-5-5-5-5-5-5-5-5-|
A|-2-2-2-2-2-2-2-2-|-3-3-3-3-5-5-5-5-|-2-2-2-2-2-2-2-2-|-3-3-3-3-5-5-5-5-|
E|-0-0-0-0---------|---------3-3-3-3-|-0-0-0-0---------|---------3-3-3-3-|
                                                                         |
Guitar 2 play trill                                                      |
e|-----------------|-----------------|-----------------|-----------------|
B|-----------------|-----------------|-----------------|-----------------|
G|-4---4---4---5-5-|--5----4-4-4-----|-4---4---4---5-5-|--5----4-4-4-----|
D|-----------------|-----------------|-----------------|-----------------|
A|-----------------|-----------------|-----------------|-----------------|
E|-----------------|-----------------|-----------------|-----------------|

Guitar 1 PM______________________________________________________________
e|-----------------|-----------------|-----------------|-----------------|
B|-----------------|-----------------|-----------------|-----------------|
G|---------4-4-4-4-|-5-5-5-5---------|---------4-4-4-4-|-5-5-5-5---------|
D|-2-2-2-2-4-4-4-4-|-5-5-5-5-5-5-5-5-|-2-2-2-2-4-4-4-4-|-5-5-5-5-5-5-5-5-|
A|-2-2-2-2-2-2-2-2-|-3-3-3-3-5-5-5-5-|-2-2-2-2-2-2-2-2-|-3-3-3-3-5-5-5-5-|
E|-0-0-0-0---------|---------3-3-3-3-|-0-0-0-0---------|---------3-3-3-3-|
                                                                         |
Guitar 2 play trill (1717 is quick pick of 17 17)                        |
e|-----------------|-----------------|-----------------|-----------------|
B|-----------------|-----------------|-----------------|-----------------|
G|/16--16--16--1717|--17--16-16-16---|-16--16--16--1717|--19b--19b--19-19|
D|-----------------|-----------------|-----------------|-----------------|
A|-----------------|-----------------|-----------------|-----------------|
E|-----------------|-----------------|-----------------|-----------------|

Outro Chorus
"This is like Hollywood,               All front, no depth, no good"
"This is my Hollywood,                 I'd run, I wish I could"
e|-----------------|-----------------|-----------------|-----------------|
B|-----------------|-----------------|-----------------|-----------------|
G|---------4-4-4-4-|-5-5-5-5---------|---------4-4-4-4-|-5-5-5-5-7-7-7-7-| x2
D|-2-2-2-2-4-4-4-4-|-5-5-5-5-5-5-5-5-|-2-2-2-2-4-4-4-4-|-5-5-5-5-7-7-7-7-|
A|-2-2-2-2-2-2-2-2-|-3-3-3-3-5-5-5-5-|-2-2-2-2-2-2-2-2-|-3-3-3-3-5-5-5-5-|
E|-0-0-0-0---------|---------3-3-3-3-|-0-0-0-0---------|-----------------|

"This is my Hollywood,                  This is my Hollywood" x2
Guitar 1
e|-----------------|-----------------|-----------------|-----------------|
B|-----------------|-----------------|-----------------|-----------------|
G|---------4-4-4-4-|-5-5-5-5---------|---------4-4-4-4-|-5-5-5-5---------| x2
D|-2-2-2-2-4-4-4-4-|-5-5-5-5-5-5-5-5-|-2-2-2-2-4-4-4-4-|-5-5-5-5-5-5-5-5-|
A|-2-2-2-2-2-2-2-2-|-3-3-3-3-5-5-5-5-|-2-2-2-2-2-2-2-2-|-3-3-3-3-5-5-5-5-|
E|-0-0-0-0---------|---------3-3-3-3-|-0-0-0-0---------|---------3-3-3-3-|

Guitar 2 over above                     
e|------------------------------|       |------------------------------|
B|------------------------------|       |------------------------------|        
G|-11b13r11-9--11b13r11-9-------| x3    |-11b13r11-9--11b13r11-9--11---|
D|------------------------9~----|       |------------------------------|
A|------------------------------|       |------------------------------|
E|------------------------------|       |------------------------------|

Guitar 1 
e|-0---------------|
B|-0---------------|
G|-0---------------|
D|-2---------------|
A|-2---------------|
E|-0---------------|
                   |
Guitar 2           |
e|-----------------|
B|-----------------|
G|-9---------------|
D|-----------------|
A|-----------------|
E|-----------------|
__________________________________________________________________________________________________

3.  Nerve Gas


Intro
e|--------------------|--------------------|--------------------|--------------------|
B|-12---12---12---12--|-12---12---12---12--|-12---12---12---12--|-12---12---12-------|
G|-14b-r14b-r14b-r14b-|-14b-r14b-r14b-r14b-|-14b-r14b-r14b-r14b-|-14b-r14b-r14b------|
D|--------------------|--------------------|--------------------|--------------------|
A|--------------------|--------------------|--------------------|--------------------|
E|--------------------|--------------------|--------------------|---------------12\--|

Band enters (fast progression)
e|-----------------|-----------------|-----------------|-----------------|
B|-----------------|-----------------|-----------------|-----------------|
G|-----5-----------|-----5-----------|-----5-----------|-----5-----------| x2
D|-2-2-5-5-5-7-7-7-|-2-2-5-5-5-7-7-7-|-2-2-5-5-5-7-7-7-|-2-2-5-5-5-7-7-7-|
A|-2-2-3-5-5-7-7-7-|-2-2-3-5-5-7-7-7-|-2-2-3-5-5-7-7-7-|-2-2-3-5-5-7-7-7-|
E|-0-0---3-3-5-5-5-|-0-0---3-3-5-5-5-|-0-0---3-3-5-5-5-|-0-0---3-3-5-5-5-|

Verse 1
"How could I let you get so attached, Before I knew you, you had us matched"
"A broken quartet, plays your hearts strings, Your out of tune, with everything"
PM_______________________________________________________________________
e|-----------------|-----------------|-----------------|-----------------|
B|-----------------|-----------------|-----------------|-----------------|
G|-----5-----------|-----5-----------|-----5-----------|-----5-----------| x2
D|-2-2-5-5-5-7-7-7-|-2-2-5-5-5-7-7-7-|-2-2-5-5-5-7-7-7-|-2-2-5-5-5-7-7-7-|
A|-2-2-3-5-5-7-7-7-|-2-2-3-5-5-7-7-7-|-2-2-3-5-5-7-7-7-|-2-2-3-5-5-7-7-7-|
E|-0-0---3-3-5-5-5-|-0-0---3-3-5-5-5-|-0-0---3-3-5-5-5-|-0-0---3-3-5-5-5-|

Chorus 1
"Nerve gas, nerve gas, no class"
e|-----------------|-----------------|-----------------|-----------------|
B|-----------------|-----------------|-----------------|-----------------|
G|-5-5-5-5-5-5-5-5-|-5-5-5-5-5-5-5-5-|-----------------|-3-3-3-3-3-3-3-3-|
D|-5-5-5-5-5-5-5-5-|-5-5-5-5-5-5-5-5-|-3-3-3-3-3-3-3-3-|-3-3-3-3-3-3-3-3-|
A|-3-3-3-3-3-3-3-3-|-3-3-3-3-3-3-3-3-|-3-3-3-3-3-3-3-3-|-1-1-1-1-1-1-1-1-|
E|-----------------|-----------------|-1-1-1-1-1-1-1-1-|-----------------|

"I get asphyxiated, funny how fast you faded"
e|-2--2-2-2-2-2-2--|-3---2---0---2---|-3--3-3-3-3-3-3--|-----------------|
B|-3--3-3-3-3-3-3--|-3---3---3---3---|-3--3-3-3-3-3-3--|-----------------|
G|-2--2-2-2-2-2-2--|-2---2---2---2---|-0--0-0-0-0-0-0--|-2--2-2-2-2-2-2--|
D|-0--0-0-0-0-0-0--|-0---0---0---0---|-0--0-0-0-0-0-0--|-2--2-2-2-2-2-2--|
A|-----------------|-----------------|-2--2-2-2-2-2-2--|-0--0-0-0-0-0-0--|
E|-----------------|-----------------|-3--3-3-3-3-3-3--|-----------------|

"Nerve gas"
PM   __________________grad release
e|-----------------|-----------------|
B|-----------------|-----------------|
G|-5-5-5-5-5-5-5-5-|-5-5-5-5-5-5-5-5-|
D|-5-5-5-5-5-5-5-5-|-5-5-5-5-5-5-5-5-|
A|-3-3-3-3-3-3-3-3-|-3-3-3-3-3-3-3-3-|
E|-----------------|-----------------|

Verse 2
"It's cold in the kitchen, my nicotine tongue" 
"Is dry and sarcastic and blacken them lungs"
"Your flipping the trip switch and sucking your thumb"
"And poking your fingers where they don't belong"
PM_______________________________________________________________________
e|-----------------|-----------------|-----------------|-----------------|
B|-----------------|-----------------|-----------------|-----------------|
G|-----5-----------|-----5-----------|-----5-----------|-----5-----------| x2
D|-2-2-5-5-5-7-7-7-|-2-2-5-5-5-7-7-7-|-2-2-5-5-5-7-7-7-|-2-2-5-5-5-7-7-7-|
A|-2-2-3-5-5-7-7-7-|-2-2-3-5-5-7-7-7-|-2-2-3-5-5-7-7-7-|-2-2-3-5-5-7-7-7-|
E|-0-0---3-3-5-5-5-|-0-0---3-3-5-5-5-|-0-0---3-3-5-5-5-|-0-0---3-3-5-5-5-|

Chorus 2
"Nerve gas, nerve gas, no class"
e|-----------------|-----------------|-----------------|-----------------|
B|-----------------|-----------------|-----------------|-----------------|
G|-5-5-5-5-5-5-5-5-|-5-5-5-5-5-5-5-5-|-----------------|-3-3-3-3-3-3-3-3-|
D|-5-5-5-5-5-5-5-5-|-5-5-5-5-5-5-5-5-|-3-3-3-3-3-3-3-3-|-3-3-3-3-3-3-3-3-|
A|-3-3-3-3-3-3-3-3-|-3-3-3-3-3-3-3-3-|-3-3-3-3-3-3-3-3-|-1-1-1-1-1-1-1-1-|
E|-----------------|-----------------|-1-1-1-1-1-1-1-1-|-----------------|

"Nerve gas, nerve gas, no class"
e|-----------------|-----------------|-----------------|-----------------|
B|-----------------|-----------------|-----------------|-----------------|
G|-5-5-5-5-5-5-5-5-|-5-5-5-5-5-5-5-5-|-----------------|-3-3-3-3-3-3-3-3-|
D|-5-5-5-5-5-5-5-5-|-5-5-5-5-5-5-5-5-|-3-3-3-3-3-3-3-3-|-3-3-3-3-3-3-3-3-|
A|-3-3-3-3-3-3-3-3-|-3-3-3-3-3-3-3-3-|-3-3-3-3-3-3-3-3-|-1-1-1-1-1-1-1-1-|
E|-----------------|-----------------|-1-1-1-1-1-1-1-1-|-----------------|

"I get asphyxiated, funny how fast you faded"
e|-2--2-2-2-2-2-2--|-3---2---0---2---|-3--3-3-3-3-3-3--|-----------------|
B|-3--3-3-3-3-3-3--|-3---3---3---3---|-3--3-3-3-3-3-3--|-----------------|
G|-2--2-2-2-2-2-2--|-2---2---2---2---|-0--0-0-0-0-0-0--|-2--2-2-2-2-2-2--|
D|-0--0-0-0-0-0-0--|-0---0---0---0---|-0--0-0-0-0-0-0--|-2--2-2-2-2-2-2--|
A|-----------------|-----------------|-2--2-2-2-2-2-2--|-0--0-0-0-0-0-0--|
E|-----------------|-----------------|-3--3-3-3-3-3-3--|-----------------|

"Nerve gas"
PM   __________________grad release
e|-----------------|-----------------|
B|-----------------|-----------------|
G|-5-5-5-5-5-5-5-5-|-5-5-5-5-5-5-5-5-|
D|-5-5-5-5-5-5-5-5-|-5-5-5-5-5-5-5-5-|
A|-3-3-3-3-3-3-3-3-|-3-3-3-3-3-3-3-3-|
E|-----------------|-----------------|

(Solo)
Guitar 1
e|-----------------|-----------------|-----------------|-----------------|
B|-----------------|-----------------|-----------------|-----------------|
G|-----5-----------|-----5-----------|-----5-----------|-----5-----------| x2
D|-2-2-5-5-5-7-7-7-|-2-2-5-5-5-7-7-7-|-2-2-5-5-5-7-7-7-|-2-2-5-5-5-7-7-7-|
A|-2-2-3-5-5-7-7-7-|-2-2-3-5-5-7-7-7-|-2-2-3-5-5-7-7-7-|-2-2-3-5-5-7-7-7-|
E|-0-0---3-3-5-5-5-|-0-0---3-3-5-5-5-|-0-0---3-3-5-5-5-|-0-0---3-3-5-5-5-|

Guitar 2 either get one of those really f**king annoying key-rings that make electronic
beeping noises 
Or
e|--------------------|--------------------|--------------------|--------------------|
B|-12---12---12---12--|-12---12---12---12--|-14---14---14---14--|-14---14---14---14--|
G|-14b-r14b-r14b-r14b-|-14b-r14b-r14b-r14b-|-15b-r15b-r15b-r15b-|-15b-r15b-r15b-r15b-|
D|--------------------|--------------------|--------------------|--------------------|
A|--------------------|--------------------|--------------------|--------------------|
E|--------------------|--------------------|--------------------|--------------------|

e|--------------------|--------------------|--------------------|--------------------|
B|-15---15---15---15--|-15---15---15---15--|-17---17---17---17--|-19b----------------|
G|-17b-r17b-r17b-r17b-|-17b-r17b-r17b-r17b-|-19b-r19b-r19b-r19b-|--------------------|
D|--------------------|--------------------|--------------------|--------------------|
A|--------------------|--------------------|--------------------|--------------------|
E|--------------------|--------------------|--------------------|--------------------|

Verse 3 (bass only)
"It's cold in the kitchen, my nicotine tongue" 
"Is dry and sarcastic and blacken them lungs"
"Your flipping the trip switch and sucking your thumb"
"And poking your fingers where they don't belong"
e|-----------------|-----------------|-----------------|-----------------|
B|-----------------|-----------------|-----------------|-----------------|
G|-----------------|-----------------|-----------------|-----------------|
D|-----------------|-----------------|-----------------|-----------x-x-x-|
A|-----------------|-----------------|-----------------|-----------x-x-x-|
E|-----------------|-----------------|-----------------|-----------x-x-x-|

PM________
e|-----------------|-----------------|-----------------|-----------------|
B|-----------------|-----------------|-----------------|-----------------|
G|-----------------|-----------------|-----------------|-----------------|
D|-2-2-2-----------|-----------------|-----------------|-----------------|
A|-2-2-2-----------|-----------------|-----------------|-----------------|
E|-0-0-0-----------|-----------------|-----------------|-----------------|

Outro Chorus
"Nerve gas, nerve gas, no class"
e|-----------------|-----------------|-----------------|-----------------|
B|-----------------|-----------------|-----------------|-----------------|
G|-5-5-5-5-5-5-5-5-|-5-5-5-5-5-5-5-5-|-----------------|-3-3-3-3-3-3-3-3-|
D|-5-5-5-5-5-5-5-5-|-5-5-5-5-5-5-5-5-|-3-3-3-3-3-3-3-3-|-3-3-3-3-3-3-3-3-|
A|-3-3-3-3-3-3-3-3-|-3-3-3-3-3-3-3-3-|-3-3-3-3-3-3-3-3-|-1-1-1-1-1-1-1-1-|
E|-----------------|-----------------|-1-1-1-1-1-1-1-1-|-----------------|

"Nerve gas, nerve gas, no class"
e|-----------------|-----------------|-----------------|-----------------|
B|-----------------|-----------------|-----------------|-----------------|
G|-5-5-5-5-5-5-5-5-|-5-5-5-5-5-5-5-5-|-----------------|-3-3-3-3-3-3-3-3-|
D|-5-5-5-5-5-5-5-5-|-5-5-5-5-5-5-5-5-|-3-3-3-3-3-3-3-3-|-3-3-3-3-3-3-3-3-|
A|-3-3-3-3-3-3-3-3-|-3-3-3-3-3-3-3-3-|-3-3-3-3-3-3-3-3-|-1-1-1-1-1-1-1-1-|
E|-----------------|-----------------|-1-1-1-1-1-1-1-1-|-----------------|

"I get asphyxiated, funny how fast you faded"
e|-2--2-2-2-2-2-2--|-3---2---0---2---|-3--3-3-3-3-3-3--|-----------------|
B|-3--3-3-3-3-3-3--|-3---3---3---3---|-3--3-3-3-3-3-3--|-----------------|
G|-2--2-2-2-2-2-2--|-2---2---2---2---|-0--0-0-0-0-0-0--|-2--2-2-2-2-2-2--|
D|-0--0-0-0-0-0-0--|-0---0---0---0---|-0--0-0-0-0-0-0--|-2--2-2-2-2-2-2--|
A|-----------------|-----------------|-2--2-2-2-2-2-2--|-0--0-0-0-0-0-0--|
E|-----------------|-----------------|-3--3-3-3-3-3-3--|-----------------|

"I get asphyxiated, funny how fast you faded"
e|-2--2-2-2-2-2-2--|-3---2---0---2---|-3--3-3-3-3-3-3--|-----------------|
B|-3--3-3-3-3-3-3--|-3---3---3---3---|-3--3-3-3-3-3-3--|-----------------|
G|-2--2-2-2-2-2-2--|-2---2---2---2---|-0--0-0-0-0-0-0--|-2--2-2-2-2-2-2--|
D|-0--0-0-0-0-0-0--|-0---0---0---0---|-0--0-0-0-0-0-0--|-2--2-2-2-2-2-2--|
A|-----------------|-----------------|-2--2-2-2-2-2-2--|-0--0-0-0-0-0-0--|
E|-----------------|-----------------|-3--3-3-3-3-3-3--|-----------------|

"Nerve gas"
PM   _____________________________________________________grad release
e|-----------------|-----------------|-----------------|-----------------|
B|-----------------|-----------------|-----------------|-----------------|
G|-5-5-5-5-5-5-5-5-|-5-5-5-5-5-5-5-5-|-5-5-5-5-5-5-5-5-|-5-5-5-5-5-5-5-5-|
D|-5-5-5-5-5-5-5-5-|-5-5-5-5-5-5-5-5-|-5-5-5-5-5-5-5-5-|-5-5-5-5-5-5-5-5-|
A|-3-3-3-3-3-3-3-3-|-3-3-3-3-3-3-3-3-|-3-3-3-3-3-3-3-3-|-3-3-3-3-3-3-3-3-|
E|-----------------|-----------------|-----------------|-----------------|

__________________________________________________________________________________________________

4.  Nuclear Holiday

Verse 1
Bass only
"I had the best intentions yeah honestly"

"I paid attention"
PM________________________________________________________grad release
e|-----------------|-----------------|-----------------|-----------------|
B|-----------------|-----------------|-----------------|-----------------|
G|-----------------|-----------------|-----------------|-----------------|
D|-6-6-6-6-6-6-6-6-|-6-6-6-6-6-6-6-6-|-6-6-6-6-6-6-6-6-|-6-6-6-6-6-6-6-6-|
A|-6-6-6-6-6-6-6-6-|-6-6-6-6-6-6-6-6-|-6-6-6-6-6-6-6-6-|-6-6-6-6-6-6-6-6-|
E|-4-4-4-4-4-4-4-4-|-4-4-4-4-4-4-4-4-|-4-4-4-4-4-4-4-4-|-4-4-4-4-4-4-4-4-|

"I'm a loose connection, so promise me"
PM________________________________________________________grad release
e|-----------------|-----------------|-----------------|-----------------|
B|-----------------|-----------------|-----------------|-----------------|
G|-----------------|-----------------|-----------------|-----------------|
D|-9-9-9-9-9-9-9-9-|-9-9-9-9-9-9-9-9-|-9-9-9-9-9-9-9-9-|-9-9-9-9-9-9-9-9-|
A|-9-9-9-9-9-9-9-9-|-9-9-9-9-9-9-9-9-|-9-9-9-9-9-9-9-9-|-9-9-9-9-9-9-9-9-|
E|-7-7-7-7-7-7-7-7-|-7-7-7-7-7-7-7-7-|-7-7-7-7-7-7-7-7-|-7-7-7-7-7-7-7-7-|

"A soft injection"
PM________________________________________________________grad release
e|-----------------|-----------------|-----------------|-----------------|
B|-----------------|-----------------|-----------------|-----------------|
G|-----------------|-----------------|-----------------|-----------------|
D|-6-6-6-6-6-6-6-6-|-6-6-6-6-6-6-6-6-|-6-6-6-6-6-6-6-6-|-6-6-6-6-6-6-6-6-|
A|-6-6-6-6-6-6-6-6-|-6-6-6-6-6-6-6-6-|-6-6-6-6-6-6-6-6-|-6-6-6-6-6-6-6-6-|
E|-4-4-4-4-4-4-4-4-|-4-4-4-4-4-4-4-4-|-4-4-4-4-4-4-4-4-|-4-4-4-4-4-4-4-4-|

Prechorus
"A shallow feeling, defies meaning"
e|-----------------|-----------------|-----------------|-----------------|
B|-----------------|-----------------|-----------------|-----------------|
G|-6---6-6-6-6-6-6-|-----------------|-6---6-6-6-6-6-6-|-2-2-2-4---4-4-4-|
D|-6---6-6-6-6-6-6-|-2-2-2-4---4-4-4-|-6---6-6-6-6-6-6-|-2-2-2-4---4-4-4-|
A|-4---4-4-4-4-4-4-|-2-2-2-4---4-4-4-|-4---4-4-4-4-4-4-|-0-0-0-2---2-2-2-|
E|-----------------|-0-0-0-2---2-2-2-|-----------------|-----------------|

Chorus 1
"I need a holiday to blow you all away"
e|-----------------|-----------------|-----------------|-----------------|
B|-----------------|-----------------|-----------------|-----------------|
G|-9-9-9-9-9-9-9-9-|-9-9-9-9-9-9-9-9-|-4-4-4-4-4-4-4-4-|-4-4-4-4-4-4-4-4-|
D|-9-9-9-9-9-9-9-9-|-9-9-9-9-9-9-9-9-|-4-4-4-4-4-4-4-4-|-4-4-4-4-4-4-4-4-|
A|-7-7-7-7-7-7-7-7-|-7-7-7-7-7-7-7-7-|-2-2-2-2-2-2-2-2-|-2-2-2-2-2-2-2-2-|
E|-----------------|-----------------|-----------------|-----------------|

"Love all the stiffs in my parade"
e|-----------------|-----------------|-----------------|-----------------|
B|-----------------|-----------------|-----------------|-----------------|
G|-5-6-6-6-6-6-6-6-|-6-6-6-6-6-6-6-6-|-----------------|-----------------|
D|-5-6-6-6-6-6-6-6-|-6-6-6-6-6-6-6-6-|-6-6-6-6-6-6-6-6-|-6-6-6-6-6-6-6-6-|
A|-3-4-4-4-4-4-4-4-|-4-4-4-4-4-4-4-4-|-6-6-6-6-6-6-6-6-|-6-6-6-6-6-6-6-6-|
E|-----------------|-----------------|-4-4-4-4-4-4-4-4-|-4-4-4-4-4-4-4-4-|

"I need a holiday a nuclear holiday"
e|-----------------|-----------------|-----------------|-----------------|
B|-----------------|-----------------|-----------------|-----------------|
G|-9-9-9-9-9-9-9-9-|-9-9-9-9-9-9-9-9-|-4-4-4-4-4-4-4-4-|-4-4-4-4-4-4-4-4-|
D|-9-9-9-9-9-9-9-9-|-9-9-9-9-9-9-9-9-|-4-4-4-4-4-4-4-4-|-4-4-4-4-4-4-4-4-|
A|-7-7-7-7-7-7-7-7-|-7-7-7-7-7-7-7-7-|-2-2-2-2-2-2-2-2-|-2-2-2-2-2-2-2-2-|
E|-----------------|-----------------|-----------------|-----------------|

"Just go anywhere I'll stay"
e|-----------------|-----------------|-----------------|-----------------|
B|-----------------|-----------------|-----------------|-----------------|
G|-5-6-6-6-6-6-6-6-|-6-6-6-6-6-6-6-6-|-----------------|-----------------|
D|-5-6-6-6-6-6-6-6-|-6-6-6-6-6-6-6-6-|-6-6-6-6-6-6-6-6-|-6-6-6-6-6-6-6-6-|
A|-3-4-4-4-4-4-4-4-|-4-4-4-4-4-4-4-4-|-6-6-6-6-6-6-6-6-|-6-6-6-6-6-6-6-6-|
E|-----------------|-----------------|-4-4-4-4-4-4-4-4-|-4-4-4-4-4-4-4-4-|

Verse 2

"Fell on the outside where givin' in"
PM________________________________________________________grad release
e|-----------------|-----------------|-----------------|-----------------|
B|-----------------|-----------------|-----------------|-----------------|
G|-----------------|-----------------|-----------------|-----------------|
D|-9-9-9-9-9-9-9-9-|-9-9-9-9-9-9-9-9-|-9-9-9-9-9-9-9-9-|-9-9-9-9-9-9-9-9-|
A|-9-9-9-9-9-9-9-9-|-9-9-9-9-9-9-9-9-|-9-9-9-9-9-9-9-9-|-9-9-9-9-9-9-9-9-|
E|-7-7-7-7-7-7-7-7-|-7-7-7-7-7-7-7-7-|-7-7-7-7-7-7-7-7-|-7-7-7-7-7-7-7-7-|

"Comes in like the tide"
PM________________________________________________________grad release
e|-----------------|-----------------|-----------------|-----------------|
B|-----------------|-----------------|-----------------|-----------------|
G|-----------------|-----------------|-----------------|-----------------|
D|-6-6-6-6-6-6-6-6-|-6-6-6-6-6-6-6-6-|-6-6-6-6-6-6-6-6-|-6-6-6-6-6-6-6-6-|
A|-6-6-6-6-6-6-6-6-|-6-6-6-6-6-6-6-6-|-6-6-6-6-6-6-6-6-|-6-6-6-6-6-6-6-6-|
E|-4-4-4-4-4-4-4-4-|-4-4-4-4-4-4-4-4-|-4-4-4-4-4-4-4-4-|-4-4-4-4-4-4-4-4-|

"And everybody's shining, perfecting"
PM________________________________________________________grad release
e|-----------------|-----------------|-----------------|-----------------|
B|-----------------|-----------------|-----------------|-----------------|
G|-----------------|-----------------|-----------------|-----------------|
D|-9-9-9-9-9-9-9-9-|-9-9-9-9-9-9-9-9-|-9-9-9-9-9-9-9-9-|-9-9-9-9-9-9-9-9-|
A|-9-9-9-9-9-9-9-9-|-9-9-9-9-9-9-9-9-|-9-9-9-9-9-9-9-9-|-9-9-9-9-9-9-9-9-|
E|-7-7-7-7-7-7-7-7-|-7-7-7-7-7-7-7-7-|-7-7-7-7-7-7-7-7-|-7-7-7-7-7-7-7-7-|

"Moments in timing"
PM________________________________________________________grad release
e|-----------------|-----------------|-----------------|-----------------|
B|-----------------|-----------------|-----------------|-----------------|
G|-----------------|-----------------|-----------------|-----------------|
D|-6-6-6-6-6-6-6-6-|-6-6-6-6-6-6-6-6-|-6-6-6-6-6-6-6-6-|-6-6-6-6-6-6-6-6-|
A|-6-6-6-6-6-6-6-6-|-6-6-6-6-6-6-6-6-|-6-6-6-6-6-6-6-6-|-6-6-6-6-6-6-6-6-|
E|-4-4-4-4-4-4-4-4-|-4-4-4-4-4-4-4-4-|-4-4-4-4-4-4-4-4-|-4-4-4-4-4-4-4-4-|

Prechorus
"A shallow feeling, defies meaning"
e|-----------------|-----------------|-----------------|-----------------|
B|-----------------|-----------------|-----------------|-----------------|
G|-6---6-6-6-6-6-6-|-----------------|-6---6-6-6-6-6-6-|-2-2-2-4---4-4-4-|
D|-6---6-6-6-6-6-6-|-2-2-2-4---4-4-4-|-6---6-6-6-6-6-6-|-2-2-2-4---4-4-4-|
A|-4---4-4-4-4-4-4-|-2-2-2-4---4-4-4-|-4---4-4-4-4-4-4-|-0-0-0-2---2-2-2-|
E|-----------------|-0-0-0-2---2-2-2-|-----------------|-----------------|
 
Chorus 2
"I need a holiday to blow you all away"
e|-----------------|-----------------|-----------------|-----------------|
B|-----------------|-----------------|-----------------|-----------------|
G|-9-9-9-9-9-9-9-9-|-9-9-9-9-9-9-9-9-|-4-4-4-4-4-4-4-4-|-4-4-4-4-4-4-4-4-|
D|-9-9-9-9-9-9-9-9-|-9-9-9-9-9-9-9-9-|-4-4-4-4-4-4-4-4-|-4-4-4-4-4-4-4-4-|
A|-7-7-7-7-7-7-7-7-|-7-7-7-7-7-7-7-7-|-2-2-2-2-2-2-2-2-|-2-2-2-2-2-2-2-2-|
E|-----------------|-----------------|-----------------|-----------------|

"Love all the stiffs in my parade"
e|-----------------|-----------------|-----------------|-----------------|
B|-----------------|-----------------|-----------------|-----------------|
G|-5-6-6-6-6-6-6-6-|-6-6-6-6-6-6-6-6-|-----------------|-----------------|
D|-5-6-6-6-6-6-6-6-|-6-6-6-6-6-6-6-6-|-6-6-6-6-6-6-6-6-|-6-6-6-6-6-6-6-6-|
A|-3-4-4-4-4-4-4-4-|-4-4-4-4-4-4-4-4-|-6-6-6-6-6-6-6-6-|-6-6-6-6-6-6-6-6-|
E|-----------------|-----------------|-4-4-4-4-4-4-4-4-|-4-4-4-4-4-4-4-4-|

"I need a holiday a nuclear holiday"
e|-----------------|-----------------|-----------------|-----------------|
B|-----------------|-----------------|-----------------|-----------------|
G|-9-9-9-9-9-9-9-9-|-9-9-9-9-9-9-9-9-|-4-4-4-4-4-4-4-4-|-4-4-4-4-4-4-4-4-|
D|-9-9-9-9-9-9-9-9-|-9-9-9-9-9-9-9-9-|-4-4-4-4-4-4-4-4-|-4-4-4-4-4-4-4-4-|
A|-7-7-7-7-7-7-7-7-|-7-7-7-7-7-7-7-7-|-2-2-2-2-2-2-2-2-|-2-2-2-2-2-2-2-2-|
E|-----------------|-----------------|-----------------|-----------------|

"Just go anywhere I'll stay"
e|-----------------|-----------------|-----------------|-----------------|
B|-----------------|-----------------|-----------------|-----------------|
G|-5-6-6-6-6-6-6-6-|-6-6-6-6-6-6-6-6-|-----------------|-----------------|
D|-5-6-6-6-6-6-6-6-|-6-6-6-6-6-6-6-6-|-6-6-6-6-6-6-6-6-|-6-6-6-6-6-6-6-6-|
A|-3-4-4-4-4-4-4-4-|-4-4-4-4-4-4-4-4-|-6-6-6-6-6-6-6-6-|-6-6-6-6-6-6-6-6-|
E|-----------------|-----------------|-4-4-4-4-4-4-4-4-|-4-4-4-4-4-4-4-4-|

Solo                                                                    
Guitar 1
e|-----------------|-----------------|-----------------|-----------------|
B|-----------------|-----------------|-----------------|-----------------|
G|-2-2-2-2-2-2-2-2-|-4-4-4-4-4-4-4-4-|-9-9-9-9-8-8-8-8-|-2-2-2-2-2-2-2-2-|
D|-2-2-2-2-2-2-2-2-|-4-4-4-4-4-4-4-4-|-9-9-9-9-8-8-8-8-|-2-2-2-2-2-2-2-2-|
A|-0-0-0-0-0-0-0-0-|-2-2-2-2-2-2-2-2-|-7-7-7-7-6-6-6-6-|-4-4-4-4-4-4-4-4-|
E|-----------------|-----------------|-----------------|-----------------|
                                                                         |
Guitar 2                                                                 |
e|-----------------|-----------------|-----------------|-----------------|
B|-----------------|-----------------|-----------------|-----------------|
G|-----------------|-----------------|-9-----11----9---|---11----9-11-9--|
D|-6-7-6---9-------|-6-7-6---9-------|---9-9---9-9---9-|-9---9-9---------|
A|-------7---------|-------7---------|-----------------|-----------------|
E|-----------------|-----------------|-----------------|-----------------|

Guitar 1
e|-----------------|-----------------|-----------------|-----------------|
B|-----------------|-----------------|-----------------|-----------------|
G|-2-2-2-2-2-2-2-2-|-4-4-4-4-4-4-4-4-|-----------------|-----------------|
D|-2-2-2-2-2-2-2-2-|-4-4-4-4-4-4-4-4-|-2-2-2-2-2-2-2-2-|-2-2-2-2-2-2-2-2-|
A|-0-0-0-0-0-0-0-0-|-2-2-2-2-2-2-2-2-|-2-2-2-2-2-2-2-2-|-2-2-2-2-2-2-2-2-|
E|-----------------|-----------------|-0-0-0-0-0-0-0-0-|-0-0-0-0-0-0-0-0-|
                                                                         |
Guitar 2                                                                 |
e|-----------------|-----------------|-----------------|-----------------|
B|-----------------|-----------------|-----------------|-----------------|
G|-----------------|-----------------|-9-x-x-11-x-x-11b|-(hold bend)-----|
D|-6-7-6---9-------|-6-7-6---9-------|-----------------|-----------------|
A|-------7---------|-------7---------|-----------------|-----------------|
E|-----------------|-----------------|-----------------|-----------------|

Bridge
"If I talk you talk the words I say, Come back around a different way"
PM_______________________________________________________________________
e|-----------------|-----------------|-----------------|-----------------|
B|-----------------|-----------------|-----------------|-----------------|
G|-----------------|-4-4-4-4-4-4-4-4-|-6-6-6-6-6-6-6-6-|-----------------|
D|-2-2-2-2-2-2-2-2-|-4-4-4-4-4-4-4-4-|-6-6-6-6-6-6-6-6-|-6-6-6-6-6-6-6-6-|
A|-2-2-2-2-2-2-2-2-|-2-2-2-2-2-2-2-2-|-4-4-4-4-4-4-4-4-|-6-6-6-6-6-6-6-6-|
E|-0-0-0-0-0-0-0-0-|-----------------|-----------------|-4-4-4-4-4-4-4-4-|

"The end is just a breath away, If you ain't got a weapon then you'll never get a say" 
PM_________________________________________________________grad release
e|-----------------|-----------------|-----------------|-----------------|
B|-----------------|-----------------|-----------------|-----------------|
G|-----------------|-4-4-4-4-4-4-4-4-|-6-6-6-6-6-6-6-6-|-----------------|
D|-2-2-2-2-2-2-2-2-|-4-4-4-4-4-4-4-4-|-6-6-6-6-6-6-6-6-|-6-6-6-6-6-6-6-6-|
A|-2-2-2-2-2-2-2-2-|-2-2-2-2-2-2-2-2-|-4-4-4-4-4-4-4-4-|-6-6-6-6-6-6-6-6-|
E|-0-0-0-0-0-0-0-0-|-----------------|-----------------|-4-4-4-4-4-4-4-4-|

Outro Chorus
"I need a holiday to blow you all away"
e|-----------------|-----------------|-----------------|-----------------|
B|-----------------|-----------------|-----------------|-----------------|
G|-9-9-9-9-9-9-9-9-|-9-9-9-9-9-9-9-9-|-4-4-4-4-4-4-4-4-|-4-4-4-4-4-4-4-4-|
D|-9-9-9-9-9-9-9-9-|-9-9-9-9-9-9-9-9-|-4-4-4-4-4-4-4-4-|-4-4-4-4-4-4-4-4-|
A|-7-7-7-7-7-7-7-7-|-7-7-7-7-7-7-7-7-|-2-2-2-2-2-2-2-2-|-2-2-2-2-2-2-2-2-|
E|-----------------|-----------------|-----------------|-----------------|

"Love all the stiffs in my parade"
e|-----------------|-----------------|-----------------|-----------------|
B|-----------------|-----------------|-----------------|-----------------|
G|-5-6-6-6-6-6-6-6-|-6-6-6-6-6-6-6-6-|-----------------|-----------------|
D|-5-6-6-6-6-6-6-6-|-6-6-6-6-6-6-6-6-|-6-6-6-6-6-6-6-6-|-6-6-6-6-6-6-6-6-|
A|-3-4-4-4-4-4-4-4-|-4-4-4-4-4-4-4-4-|-6-6-6-6-6-6-6-6-|-6-6-6-6-6-6-6-6-|
E|-----------------|-----------------|-4-4-4-4-4-4-4-4-|-4-4-4-4-4-4-4-4-|

"I need a holiday a nuclear holiday"
e|-----------------|-----------------|-----------------|-----------------|
B|-----------------|-----------------|-----------------|-----------------|
G|-9-9-9-9-9-9-9-9-|-9-9-9-9-9-9-9-9-|-4---------------|-----------------|
D|-9-9-9-9-9-9-9-9-|-9-9-9-9-9-9-9-9-|-4---------------|-----------------|
A|-7-7-7-7-7-7-7-7-|-7-7-7-7-7-7-7-7-|-2---------------|-----------------|
E|-----------------|-----------------|-----------------|-----------------|

"Just go anywhere I'll stay"
e|-----------------|-----------------|-----------------|-----------------|
B|-----------------|-----------------|-----------------|-----------------|
G|-5-6-6-6-6-6-6-6-|-6-6-6-6-6-6-6-6-|-----------------|-----------------|
D|-5-6-6-6-6-6-6-6-|-6-6-6-6-6-6-6-6-|-6-6-6-6-6-6-6-6-|-6-6-6-6-6-6-6-6-|
A|-3-4-4-4-4-4-4-4-|-4-4-4-4-4-4-4-4-|-6-6-6-6-6-6-6-6-|-6-6-6-6-6-6-6-6-|
E|-----------------|-----------------|-4-4-4-4-4-4-4-4-|-4-4-4-4-4-4-4-4-|

"I need a holiday a nuclear holiday"
Guitar 1
e|-----------------|-----------------|-----------------|-----------------|
B|-----------------|-----------------|-----------------|-----------------|
G|-9-9-9-9-9-9-9-9-|-9-9-9-9-9-9-9-9-|-4-4-4-4-4-4-4-4-|-4-4-4-4-4-4-4-4-|
D|-9-9-9-9-9-9-9-9-|-9-9-9-9-9-9-9-9-|-4-4-4-4-4-4-4-4-|-4-4-4-4-4-4-4-4-|
A|-7-7-7-7-7-7-7-7-|-7-7-7-7-7-7-7-7-|-2-2-2-2-2-2-2-2-|-2-2-2-2-2-2-2-2-|
E|-----------------|-----------------|-----------------|-----------------|
                                                                         |
Guitar 2                                                                 |
e|-----------------|-----------------|-----------------|-----------------|
B|-----------------|-----------------|-----------------|-----------------|
G|-9-9-9-9-9-9-9-9-|-9-9-9-9-9-9-9-9-|-9-9-9-9-9-9-9-9-|-9-9-9-9-9-9-9-9-|
D|-----------------|-----------------|-----------------|-----------------|
A|-7-7-7-7-7-7-7-7-|-7-7-7-7-7-7-7-7-|-7-7-7-7-7-7-7-7-|-7-7-7-7-7-7-7-7-|
E|-----------------|-----------------|-----------------|-----------------|

"Love all the stiffs in my parade"
e|-----------------|-----------------|-----------------|-----------------|
B|-----------------|-----------------|-----------------|-----------------|
G|-5-6-6-6-6-6-6-6-|-6-6-6-6-6-6-6-6-|-----------------|-----------------|
D|-5-6-6-6-6-6-6-6-|-6-6-6-6-6-6-6-6-|-6-6-6-6-6-6-6-6-|-6-6-6-6-6-6-6-6-|
A|-3-4-4-4-4-4-4-4-|-4-4-4-4-4-4-4-4-|-6-6-6-6-6-6-6-6-|-6-6-6-6-6-6-6-6-|
E|-----------------|-----------------|-4-4-4-4-4-4-4-4-|-4-4-4-4-4-4-4-4-|
                                                                         |
Guitar 2                                                                 |
e|-----------------|-----------------|-----------------|-----------------|
B|-----------------|-----------------|-----------------|-----------------|
G|-9-9-9-9-9-9-9-9-|-9-9-9-9-9-9-9-9-|-8-8-8-8-8-8-8-8-|-8-8-8-8-8-8-8-8-|
D|-----------------|-----------------|-----------------|-----------------|
A|-7-7-7-7-7-7-7-7-|-7-7-7-7-7-7-7-7-|-6-6-6-6-6-6-6-6-|-6-6-6-6-6-6-6-6-|
E|-----------------|-----------------|-----------------|-----------------|

"I need a holiday a nuclear holiday"
e|-----------------|-----------------|-----------------|-----------------|
B|-----------------|-----------------|-----------------|-----------------|
G|-9-9-9-9-9-9-9-9-|-9-9-9-9-9-9-9-9-|-4-4-4-4-4-4-4-4-|-4-4-4-4-4-4-4-4-|
D|-9-9-9-9-9-9-9-9-|-9-9-9-9-9-9-9-9-|-4-4-4-4-4-4-4-4-|-4-4-4-4-4-4-4-4-|
A|-7-7-7-7-7-7-7-7-|-7-7-7-7-7-7-7-7-|-2-2-2-2-2-2-2-2-|-2-2-2-2-2-2-2-2-|
E|-----------------|-----------------|-----------------|-----------------|
                                                                         |
Guitar 2                                                                 |
e|-----------------|-----------------|-----------------|-----------------|
B|-----------------|-----------------|-----------------|-----------------|
G|-9-9-9-9-9-9-9-9-|-9-9-9-9-9-9-9-9-|-9-9-9-9-9-9-9-9-|-9-9-9-9-9-9-9-9-|
D|-----------------|-----------------|-----------------|-----------------|
A|-7-7-7-7-7-7-7-7-|-7-7-7-7-7-7-7-7-|-7-7-7-7-7-7-7-7-|-7-7-7-7-7-7-7-7-|
E|-----------------|-----------------|-----------------|-----------------|

"Just go anywhere I'll stay"
e|-----------------|-----------------|-----------------|-----------------|
B|-----------------|-----------------|-----------------|-----------------|
G|-5-6-6-6-6-6-6-6-|-6-6-6-6-6-6-6-6-|-----------------|-----------------|
D|-5-6-6-6-6-6-6-6-|-6-6-6-6-6-6-6-6-|-6-6-6-6-6-6-6-6-|-6-6-6-6-6-6-6-6-|
A|-3-4-4-4-4-4-4-4-|-4-4-4-4-4-4-4-4-|-6-6-6-6-6-6-6-6-|-6-6-6-6-6-6-6-6-|
E|-----------------|-----------------|-4-4-4-4-4-4-4-4-|-4-4-4-4-4-4-4-4-|
                                                                         |
Guitar 2                                                                 |
e|-----------------|-----------------|-----------------|-----------------|
B|-----------------|-----------------|-----------------|-----------------|
G|-9-9-9-9-9-9-9-9-|-9-9-9-9-9-9-9-9-|-8-8-8-8-8-8-8-8-|-8-8-8-8-8-8-8-8-|
D|-----------------|-----------------|-----------------|-----------------|
A|-7-7-7-7-7-7-7-7-|-7-7-7-7-7-7-7-7-|-6-6-6-6-6-6-6-6-|-6-6-6-6-6-6-6-6-|
E|-----------------|-----------------|-----------------|-----------------|

Both
e|-0---------------|
B|-0---------------|
G|-1---------------|
D|-2---------------|
A|-2---------------|
E|-0---------------|
__________________________________________________________________________________________________

5.  Copper Girl

Verse 1
"Remember that girl who changed your world some time ago"
"A butterfly soul, you tried to chase, but eventually let go"
"An inbetweener, would possibly beat her but I don't think so"
Guitar 1
PM_______________________________________________________________________
e|-----------------|-----------------|-----------------|-----------------|
B|-----------------|-----------------|-----------------|-----------------|
G|-----------------|-----------------|-----------------|-----------------| x3
D|-----------------|-----------------|-----------------|-----------------|
A|-3-5-5-3-5-5-5-5-|-3-5-5-3-5-5-5/7-|-5-3-3-3-3-3-3-3-|-3-3-3-3-3-3-3-3-|
E|-1-3-3-1-3-3-3-3-|-1-3-3-1-3-3-3/5-|-3-1-1-1-1-1-1-1-|-1-1-1-1-1-1-1-1-|

"Around she goes, stuck in your memory, her voice echoes"
Guitar 1
PM_______________________________________________________________________
e|-----------------|-----------------|-----------------|-----------------|
B|-----------------|-----------------|-----------------|-----------------|
G|-----------------|-----------------|-----------------|-----------------|
D|-----------------|-----------------|-----------------|-----------------|
A|-3-5-5-3-5-5-5-5-|-3-5-5-3-5-5-5/7-|-5-3-3-3-3-3-3-3-|-3-3-3-3-3-3-3-3-|
E|-1-3-3-1-3-3-3-3-|-1-3-3-1-3-3-3/5-|-3-1-1-1-1-1-1-1-|-1-1-1-1-1-1-1-1-|
                                                                         |
Guitar 2 Fill                                                            |
e|-----------------|-----------------|-----------------|-----------------|
B|-------------5-5-|-----------------|-----------------|-----------------|
G|-------------5-5-|-----------------|-----------------|-----------------|
D|-------------5-5-|-----------------|-----------------|-----------------|
A|-------------3-3-|-----------------|-----------------|-----------------|
E|-----------------|-----------------|-----------------|-----------------|

Chorus 1
"Oh oh.. I will wait for that copper girl"
Guitar 1
PM_______________________________________________________________________
e|-----------------|-----------------|-----------------|-----------------|
B|-----------------|-----------------|-----------------|-----------------|
G|-----------------|-----------------|-----------------|-----------------|
D|-----------------|-----------------|-----------------|-----------------|
A|-3-5-5-3-5-5-5-5-|-3-5-5-3-5-5-5/7-|-5-3-3-3-3-3-3-3-|-3-3-3-3-3-3-3-3-|
E|-1-3-3-1-3-3-3-3-|-1-3-3-1-3-3-3/5-|-3-1-1-1-1-1-1-1-|-1-1-1-1-1-1-1-1-|

"Oh oh.. I will wait for that copper girl"
Guitar 1
PM___________________________________
e|-----------------|-----------------|-----------------|-----------------|
B|-----------------|-----------------|-----------------|-----------------|
G|-----------------|-----------------|-----------------|-----------------|
D|-----------------|-----------------|---7-7-7-7-7-7-7-|-7-7-7-7-7-7-7-7-|
A|-3-5-5-3-5-5-5-5-|-3-5-5-3-5-5-5/7-|-5-7-7-7-7-7-7-7-|-7-7-7-7-7-7-7-7-|
E|-1-3-3-1-3-3-3-3-|-1-3-3-1-3-3-3/5-|-3-5-5-5-5-5-5-5-|-5-5-5-5-5-5-5-5-|
                                                                         |
Guitar 2        a = 10  b = 12                                           |
e|-----------------|-----------------|-----------------|-----------------|
B|-----------------|-----------------|-----------------|-----------------|
G|-----------------|-----------------|-a/b-b-a/b-b-b-b-|-a/b-b-a/b-b-b-b-|
D|-----------------|-----------------|-----------------|-----------------|
A|-----------------|-----------------|-8/a-a-8/a-a-a-a-|-8/a-a-8/a-a-a-a-|
E|-----------------|-----------------|-----------------|-----------------|

Guitar 1
e|-----------------|-----------------|-----------------|-----------------|
B|-----------------|-----------------|-----------------|-----------------|
G|-----------------|-----------------|-----------------|-----------------|
D|-8-8-8-8-8-8-8-8-|-8-8-8-8-8-8-8-8-|-7-7-7-7-7-7-7-7-|-7-7-7-7-7-7-7-7-|
A|-8-8-8-8-8-8-8-8-|-8-8-8-8-8-8-8-8-|-7-7-7-7-7-7-7-7-|-7-7-7-7-7-7-7-7-|
E|-6-6-6-6-6-6-6-6-|-6-6-6-6-6-6-6-6-|-5-5-5-5-5-5-5-5-|-5-5-5-5-5-5-5-5-|
                                                                         |
Guitar 2        a = 10  b = 12                                           |
e|-----------------|-----------------|-----------------|-----------------|
B|-----------------|-----------------|-----------------|-----------------|
G|-a/b-b-a/b-b-b-b-|-a/b-b-a/b-b-b-b-|-a/b-b-a/b-b-b-b-|-a/b-b-a/b-b-b-b-|
D|-----------------|-----------------|-----------------|-----------------|
A|-8/a-a-8/a-a-a-a-|-8/a-a-8/a-a-a-a-|-8/a-a-8/a-a-a-a-|-8/a-a-8/a-a-a-a-|
E|-----------------|-----------------|-----------------|-----------------|

Both 
e|-------------------------|
B|-------------------------|
G|-------------------------|
D|-------------------------|
A|-6-------3-------1---0---|
E|-----5-------3-----------|

Verse 2 
"Remember that girl who changed your world some time ago"
"A butterfly soul, you tried to chase, but eventually let go"
"An inbetweener, would possibly beat her but I don't think so"
Guitar 1
PM_______________________________________________________________________
e|-----------------|-----------------|-----------------|-----------------|
B|-----------------|-----------------|-----------------|-----------------|
G|-----------------|-----------------|-----------------|-----------------| x3
D|-----------------|-----------------|-----------------|-----------------|
A|-3-5-5-3-5-5-5-5-|-3-5-5-3-5-5-5/7-|-5-3-3-3-3-3-3-3-|-3-3-3-3-3-3-3-3-|
E|-1-3-3-1-3-3-3-3-|-1-3-3-1-3-3-3/5-|-3-1-1-1-1-1-1-1-|-1-1-1-1-1-1-1-1-|

"Around she goes, stuck in your memory, her voice echoes"
Guitar 1
PM_______________________________________________________________________
e|-----------------|-----------------|-----------------|-----------------|
B|-----------------|-----------------|-----------------|-----------------|
G|-----------------|-----------------|-----------------|-----------------|
D|-----------------|-----------------|-----------------|-----------------|
A|-3-5-5-3-5-5-5-5-|-3-5-5-3-5-5-5/7-|-5-3-3-3-3-3-3-3-|-3-3-3-3-3-3-3-3-|
E|-1-3-3-1-3-3-3-3-|-1-3-3-1-3-3-3/5-|-3-1-1-1-1-1-1-1-|-1-1-1-1-1-1-1-1-|
                                                                         |
Guitar 2 Fill                                                            |
e|-----------------|-----------------|-----------------|-----------------|
B|-------------5-3-|-----------------|-----------------|-----------------|
G|-------------5-3-|-----------------|-----------------|-----------------|
D|-------------5-3-|-----------------|-----------------|-----------------|
A|-------------3-3-|-----------------|-----------------|-----------------|
E|-----------------|-----------------|-----------------|-----------------|

Chorus 2
"Oh oh.. I will wait for that copper girl"
e|-----------------|-----------------|-----------------|-----------------|
B|-----------------|-----------------|-----------------|-----------------|
G|-----------------|-----------------|-----------------|-----------------|
D|-3-5-5-3-5-5-5-5-|-3-5-5-3-5-5-5/7-|-5-3-3-3-3-3-3-3-|-3-3-3-3-3-3-3-3-|
A|-3-5-5-3-5-5-5-5-|-3-5-5-3-5-5-5/7-|-5-3-3-3-3-3-3-3-|-3-3-3-3-3-3-3-3-|
E|-1-3-3-1-3-3-3-3-|-1-3-3-1-3-3-3/5-|-3-1-1-1-1-1-1-1-|-1-1-1-1-1-1-1-1-|

"Oh oh.. I will wait for that copper girl"
e|-----------------|-----------------|-----------------|-----------------|
B|-----------------|-----------------|-----------------|-----------------|
G|-----------------|-----------------|-----------------|-----------------|
D|-3-5-5-3-5-5-5-5-|-3-5-5-3-5-5-5/7-|-5-3-3-3-3-3-3-3-|-3-3-3-3-3-3-3-3-|
A|-3-5-5-3-5-5-5-5-|-3-5-5-3-5-5-5/7-|-5-3-3-3-3-3-3-3-|-3-3-3-3-3-3-3-3-|
E|-1-3-3-1-3-3-3-3-|-1-3-3-1-3-3-3/5-|-3-1-1-1-1-1-1-1-|-1-1-1-1-1-1-1-1-|

"Oh oh.. I will wait for that copper girl" 
Guitar 1
e|-----------------|-----------------|-----------------|-----------------|
B|-----------------|-----------------|-----------------|-----------------|
G|-----------------|-----------------|-----------------|-----------------|
D|-7-7-7-7-7-7-7-7-|-7-7-7-7-7-7-7-7-|-8-8-8-8-8-8-8-8-|-8-8-8-8-8-8-8-8-|
A|-7-7-7-7-7-7-7-7-|-7-7-7-7-7-7-7-7-|-8-8-8-8-8-8-8-8-|-8-8-8-8-8-8-8-8-|
E|-5-5-5-5-5-5-5-5-|-5-5-5-5-5-5-5-5-|-6-6-6-6-6-6-6-6-|-6-6-6-6-6-6-6-6-|
                                                                         |
Guitar 2        a = 10  b = 12                                           |
e|-----------------|-----------------|-----------------|-----------------|
B|-----------------|-----------------|-----------------|-----------------|
G|-a/b-b-a/b-b-b-b-|-a/b-b-a/b-b-b-b-|-a/b-b-a/b-b-b-b-|-a/b-b-a/b-b-b-b-|
D|-----------------|-----------------|-----------------|-----------------|
A|-8/a-a-8/a-a-a-a-|-8/a-a-8/a-a-a-a-|-8/a-a-8/a-a-a-a-|-8/a-a-8/a-a-a-a-|
E|-----------------|-----------------|-----------------|-----------------|

"Oh oh.. I will wait for that copper girl" 
Guitar 1
e|-----------------|-----------------|-------------------------|
B|-----------------|-----------------|-------------------------|
G|-----------------|-----------------|-------------------------|
D|-7-7-7-7-7-7-7-7-|-7-7-7-7-7-7-7-7-|-------------------------|
A|-7-7-7-7-7-7-7-7-|-7-7-7-7-7-7-7-7-|-6-------3-------1---0---|
E|-5-5-5-5-5-5-5-5-|-5-5-5-5-5-5-5-5-|-----5-------3-----------|
                                                               |
Guitar 2                                                       |
e|-----------------|-----------------|-------------------------|
B|-----------------|-----------------|-------------------------|
G|-a/b-b-a/b-b-b-b-|-a/b-b-a/b-b-b-b-|-------------------------|
D|-----------------|-----------------|-------------------------|
A|-8/a-a-8/a-a-a-a-|-8/a-a-8/a-a-a-a-|-6-------3-------1---0---|
E|-----------------|-----------------|-----5-------3-----------|

Guitar 1
e|-----------------|-----------------|-------------------------|
B|-----------------|-----------------|-------------------------|
G|-----------------|-----------------|-------------------------|
D|-3-3-3-3-3-3-3-3-|-3-3-3-3-3-3-3-3-|-------------------------|
A|-3-3-3-3-3-3-3-3-|-3-3-3-3-3-3-3-3-|-6-------3-------1---0---|
E|-1-1-1-1-1-1-1-1-|-1-1-1-1-1-1-1-1-|-----5-------3-----------|
                                                               | x3
Guitar 2                                                       |
e|-----------------|-----------------|-------------------------|
B|-----------------|-0---------------|-------------------------|
G|-----------2-----|-----------------|-------------------------|
D|-----3--------3--|-----------------|-------------------------|
A|---3---3---------|-----------------|-6-------3-------1---0---|
E|-1---------------|-----------------|-----5-------3-----------|


Verse 3
"Remember that girl who changed your world some time ago"
PM_______________________________________________________________________
e|-----------------|-----------------|-----------------|-----------------|
B|-----------------|-----------------|-----------------|-----------------|
G|-----------------|-----------------|-----------------|-----------------|
D|-----------------|-----------------|-----------------|-----------------|
A|-3-5-5-3-5-5-5-5-|-3-5-5-3-5-5-5/7-|-5-3-3-3-3-3-3-3-|-3-3-3-3-3-3-3-3-|
E|-1-3-3-1-3-3-3-3-|-1-3-3-1-3-3-3/5-|-3-1-1-1-1-1-1-1-|-1-1-1-1-1-1-1-1-|

"Then she flew away, but she never did quite go.."
PM___________________________________
e|-----------------|-----------------|-----------------|-----------------|
B|-----------------|-----------------|-----------------|-----------------|
G|-----------------|-----------------|-2---------------|-----------------|
D|-----------------|-----------------|-3---------------|-----------------|
A|-3-5-5-3-5-5-5-5-|-3-5-5-3-5-5-5-5-|-3---------------|-----------------|
E|-1-3-3-1-3-3-3-3-|-1-3-3-1-3-3-3-3-|-1---------------|-----------------|

Guitar 1
e|-----------------|-----------------|-----------------|-----------------|
B|-----------------|-----------------|-----------------|-----------------|
G|-----------------|-----------------|-----------------|-----------------|
D|-5-5-5-5-5-5-5-5-|-5-5-5-5-5-5-5-5-|-7-7-7-7-7-7-7-7-|-7-7-7-7-7-5-7-5-|
A|-5-5-5-5-5-5-5-5-|-5-5-5-5-5-5-5-5-|-7-7-7-7-7-7-7-7-|-7-7-7-7-7-5-7-5-|
E|-3-3-3-3-3-3-3-3-|-3-3-3-3-3-3-3-3-|-5-5-5-5-5-5-5-5-|-5-5-5-5-5-3-5-3-|
                                                                         |
Guitar 2        a = 10  b = 12                                           |
e|-----------------|-----------------|-----------------|-----------------|
B|-----------------|-----------------|-----------------|-----------------|
G|-a/b-b-a/b-b-b-b-|-a/b-b-a/b-b-b-b-|-a/b-b-a/b-b-b-b-|-a/b-b-a/b-b-b-b-|
D|-----------------|-----------------|-----------------|-----------------|
A|-8/a-a-8/a-a-a-a-|-8/a-a-8/a-a-a-a-|-8/a-a-8/a-a-a-a-|-8/a-a-8/a-a-a-a-|
E|-----------------|-----------------|-----------------|-----------------|

Guitar 1
e|-----------------|-----------------|-----------------|-----------------|
B|-----------------|-----------------|-----------------|-----------------|
G|-5-5-5-5-5-5-5-5-|-5-5-5-5-5-5-5-5-|-----------------|-----------------|
D|-5-5-5-5-5-5-5-5-|-5-5-5-5-5-5-5-5-|-3-3-3-3-3-3-3-3-|-3-3-3-3-3-3-3-3-|
A|-3-3-3-3-3-3-3-3-|-3-3-3-3-3-3-3-3-|-3-3-3-3-3-3-3-3-|-3-3-3-3-3-3-3-3-|
E|-----------------|-----------------|-1-1-1-1-1-1-1-1-|-1-1-1-1-1-1-1-1-|
                                                                         |
Guitar 2        a = 10  b = 12                                           |
e|-----------------|-----------------|-----------------|-----------------|
B|-----------------|-----------------|-----------------|-0---------------|
G|-a/b-b-a/b-b-b-b-|-a/b-b-a/b-b-b-b-|-----------2-----|-----------------|
D|-----------------|-----------------|-----3--------3--|-----------------|
A|-8/a-a-8/a-a-a-a-|-8/a-a-8/a-a-a-a-|---3---3---------|-----------------|
E|-----------------|-----------------|-1---------------|-----------------|

Outro Chorus
"Oh oh.. I will wait for that copper girl"
Guitar 1
e|-----------------|-----------------|-----------------|-----------------|
B|-----------------|-----------------|-----------------|-----------------|
G|-----------------|-----------------|-3-3-3-3-3-3-3-3-|-3-3-3-3-3-3-3-3-|
D|-5-5-5-5-5-5-5-5-|-5-5-5-5-5-5-5-5-|-3-3-3-3-3-3-3-3-|-3-3-3-3-3-3-3-3-|
A|-5-5-5-5-5-5-5-5-|-5-5-5-5-5-5-5-5-|-1-1-1-1-1-1-1-1-|-1-1-1-1-1-1-1-1-|
E|-3-3-3-3-3-3-3-3-|-3-3-3-3-3-3-3-3-|-----------------|-----------------|
                                                                         |
Guitar 2        a = 10  b = 12                                           |
e|-----------------|-----------------|-----------------|-----------------|
B|-----------------|-----------------|-----------------|-----------------|
G|-a/b-b-a/b-b-b-b-|-a/b-b-a/b-b-b-b-|-3-3-3-3-3-3-3-3-|-3-3-3-3-3-3-3-3-|
D|-----------------|-----------------|-3-3-3-3-3-3-3-3-|-3-3-3-3-3-3-3-3-|
A|-8/a-a-8/a-a-a-a-|-8/a-a-8/a-a-a-a-|-1-1-1-1-1-1-1-1-|-1-1-1-1-1-1-1-1-|
E|-----------------|-----------------|-----------------|-----------------|

"Oh oh.. I will wait for that copper girl"
Guitar 1
e|-----------------|-----------------|-----------------|-----------------|
B|-----------------|-----------------|-----------------|-----------------|
G|-5-5-5-5-5-5-5-5-|-5-5-5-5-5-5-5-5-|-----------------|-----------------|
D|-5-5-5-5-5-5-5-5-|-5-5-5-5-5-5-5-5-|-3-3-3-3-3-3-3-3-|-3-3-3-3-3-3-3-3-|
A|-3-3-3-3-3-3-3-3-|-3-3-3-3-3-3-3-3-|-3-3-3-3-3-3-3-3-|-3-3-3-3-3-3-3-3-|
E|-----------------|-----------------|-1-1-1-1-1-1-1-1-|-1-1-1-1-1-1-1-1-|
                                                                         |
Guitar 2        a = 10  b = 12                                           |
e|-----------------|-----------------|-----------------|-----------------|
B|-----------------|-----------------|-----------------|-----------------|
G|-a/b-b-a/b-b-b-b-|-a/b-b-a/b-b-b-b-|-a/b-b-a/b-b-b-b-|-a/b-b-a/b-b-b-b-|
D|-----------------|-----------------|-----------------|-----------------|
A|-8/a-a-8/a-a-a-a-|-8/a-a-8/a-a-a-a-|-8/a-a-8/a-a-a-a-|-8/a-a-8/a-a-a-a-|
E|-----------------|-----------------|-----------------|-----------------|

"Oh oh.. I will wait for that copper girl"
Guitar 1
e|-----------------|-----------------|-----------------|---------3-------|
B|-----------------|-----------------|-----------------|-5-------5-------|
G|-5-5-5-5-5-5-5-5-|-5-5-5-5-5-5-5-5-|-5-5-5-5-5-5-5-5-|-5-------5-------|
D|-5-5-5-5-5-5-5-5-|-5-5-5-5-5-5-5-5-|-5-5-5-5-5-5-5-5-|-5-------5-------|
A|-3-3-3-3-3-3-3-3-|-3-3-3-3-3-3-3-3-|-3-3-3-3-3-3-3-3-|-3-------3-------|
E|-----------------|-----------------|-----------------|-----------------|
                                                                         |
Guitar 2                                                                 |
e|-----------------|-----------------|-----------------|-----------------|
B|-----------------|-----------------|-----------------|-----------------|
G|-5-5-5-5-5-5-5-5-|-5-5-5-5-5-5-5-5-|-5-5-5-5-5-5-5-5-|-5-5-5-5-5-5-5-5-|
D|-5-5-5-5-5-5-5-5-|-5-5-5-5-5-5-5-5-|-5-5-5-5-5-5-5-5-|-5-5-5-5-5-5-5-5-|
A|-3-3-3-3-3-3-3-3-|-3-3-3-3-3-3-3-3-|-3-3-3-3-3-3-3-3-|-3-3-3-3-3-3-3-3-|
E|-----------------|-----------------|-----------------|-----------------|

"Oh oh.. I will wait for that copper girl"
Both
e|-----------------|-----------------|-------------------------|---------|
B|-----------------|-----------------|-------------------------|---------|
G|-5-5-5-5-5-5-5-5-|-5-5-5-5-5-5-5-5-|-------------------------|-2-------|
D|-5-5-5-5-5-5-5-5-|-5-5-5-5-5-5-5-5-|-------------------------|-3-------|
A|-3-3-3-3-3-3-3-3-|-3-3-3-3-3-3-3-3-|-6-------3-------1---0---|-3-------|
E|-----------------|-----------------|-----5-------3-----------|-1-------|
__________________________________________________________________________________________________

6.  Sixty Mile Smile

Vocal intro 
"So smile the sixty mile smile, Headlight apocalypse"

e|-----------------|
B|-----------------|
G|-----------------|
D|--------------6--|
A|--------------6--|
E|--------------4--|

Verse 1
"Sunrise just for a while,             Inject the drip"
PM___________________________________
e|-----------------|-----------------|-----------------|-----------------|
B|-----------------|-----------------|-----------------|-----------------|
G|---------6-6-6-6-|-----------------|-----------------|-----------------|
D|-7-7-7-7-6-6-6-6-|-4-4-4-4-4-4-4-4-|-7-7-7-7-6-6-6-6-|-4-4-4-4-4-4-4-4-|
A|-7-7-7-7-4-4-4-4-|-4-4-4-4-4-4-4-4-|-7-7-7-7-6-6-6-6-|-4-4-4-4-4-4-4-4-|
E|-5-5-5-5---------|-2-2-2-2-2-2-2-2-|-5-5-5-5-4-4-4-4-|-2-2-2-2-2-2-2-2-|

Chorus 1
"Sixty mile smile (on and on and on and on)"
e|-----------------|-----------------|-----------------|-----------------|
B|-----------------|-----------------|-----------------|-----------------|
G|-----------------|-6-6-6-6-6-6-6-6-|-----------------|-----------------|
D|-7-7-7-7-7-7-7-7-|-6-6-6-6-6-6-6-6-|-4-4-4-4-4-4-4-4-|-4-4-4-4-4-4-4-4-|
A|-7-7-7-7-7-7-7-7-|-4-4-4-4-4-4-4-4-|-4-4-4-4-4-4-4-4-|-4-4-4-4-4-4-4-4-|
E|-5-5-5-5-5-5-5-5-|-----------------|-2-2-2-2-2-2-2-2-|-2-2-2-2-2-2-2-2-|

"Sixty mile smile (on and on and on and on)"
                                                        PM_______________
e|-----------------|-----------------|-----------------|-----------------|
B|-----------------|-----------------|-----------------|-----------------|
G|-----------------|-6-6-6-6-6-6-6-6-|-----------------|-----------------|
D|-7-7-7-7-7-7-7-7-|-6-6-6-6-6-6-6-6-|-4-4-4-4-4-4-4-4-|-4-4-4-4-4-4-4-4-|
A|-7-7-7-7-7-7-7-7-|-4-4-4-4-4-4-4-4-|-4-4-4-4-4-4-4-4-|-4-4-4-4-4-4-4-4-|
E|-5-5-5-5-5-5-5-5-|-----------------|-2-2-2-2-2-2-2-2-|-2-2-2-2-2-2-2-2-|

"Appetites of the soul                in teeth of a snake"
Guitar 1
e|-----------------|-----------------|-----------------|-----------------|
B|-----------------|-----------------|-----------------|-----------------|
G|-4---4-4-4-4-4-4-|-6---6-6-6-6-6-6-|-7---7-7-7-7-7-7-|-9-9-9-9-9-9-9-9-|
D|-4---4-4-4-4-4-4-|-6---6-6-6-6-6-6-|-7---7-7-7-7-7-7-|-9-9-9-9-9-9-9-9-|
A|-2---2-2-2-2-2-2-|-4---4-4-4-4-4-4-|-5---5-5-5-5-5-5-|-7-7-7-7-7-7-7-7-|
E|-----------------|-----------------|-----------------|-----------------|
                                                                         |
Guitar 2                                                                 |
e|---------0-------|---------0-------|---------0-------|---------0-------|
B|-----0---0---0---|-----0---0---0---|-----0---0---0---|-----0---0---0---|
G|-4---4-------4---|-6---6-------6---|-7---7-------7---|-9---9-------9---|
D|-4---------------|-6---------------|-7---------------|-9---------------|
A|-2---------------|-4---------------|-5---------------|-7---------------|
E|-----------------|-----------------|-----------------|-----------------|

"Fillin' up any hole,                  you're all afraid"
Guitar 1                                  PM___________
e|-----------------|-----------------|-----------------|-----------------|
B|-----------------|-----------------|-----------------|-----------------|
G|-4---4-4-4-4-4-4-|-6---6-6-6-6-6-6-|-7---7-7-7-7-7-7-|-7-6-6-6-6-4-4-4-|
D|-4---4-4-4-4-4-4-|-6---6-6-6-6-6-6-|-7---7-7-7-7-7-7-|-7-6-6-6-6-4-4-4-|
A|-2---2-2-2-2-2-2-|-4---4-4-4-4-4-4-|-5---5-5-5-5-5-5-|-5-4-4-4-4-2-2-2-|
E|-----------------|-----------------|-----------------|-----------------|
                                                                         |
Guitar 2                                  PM___________                  |
e|---------0-------|---------0-------|-----------------|-----------------|
B|-----0---0---0---|-----0---0---0---|-----------------|-----------------|
G|-4---4-------4---|-6---6-------6---|-7---7-7-7-7-7-7-|-7-6-6-6-6-4-4-4-|
D|-4---------------|-6---------------|-7---7-7-7-7-7-7-|-----------------|
A|-2---------------|-4---------------|-5---5-5-5-5-5-5-|-5-4-4-4-4-2-2-2-|
E|-----------------|-----------------|-----------------|-----------------|

Verse 2
"To smile the sixty mile smile,        I got so tired of being down"
PM_______________________________________________________________________
e|-----------------|-----------------|-----------------|-----------------|
B|-----------------|-----------------|-----------------|-----------------|
G|---------6-6-6-6-|-----------------|---------6-6-6-6-|-----------------|
D|-7-7-7-7-6-6-6-6-|-4-4-4-4-4-4-4-4-|-7-7-7-7-6-6-6-6-|-4-4-4-4-4-4-4-4-|
A|-7-7-7-7-4-4-4-4-|-4-4-4-4-4-4-4-4-|-7-7-7-7-4-4-4-4-|-4-4-4-4-4-4-4-4-|
E|-5-5-5-5---------|-2-2-2-2-2-2-2-2-|-5-5-5-5---------|-2-2-2-2-2-2-2-2-|

"We fall in elegant style,             Without a sound" 
PM___________________________________
e|-----------------|-----------------|-----------------|-----------------|
B|-----------------|-----------------|-----------------|-----------------|
G|---------6-6-6-6-|-----------------|-5-5-5-5-4-4-4-4-|-3-3-3-3-3-3-3-3-|
D|-7-7-7-7-6-6-6-6-|-4-4-4-4-4-4-4-4-|-7-7-7-7-6-6-6-6-|-4-4-4-4-4-4-4-4-|
A|-7-7-7-7-4-4-4-4-|-4-4-4-4-4-4-4-4-|-7-7-7-7-6-6-6-6-|-4-4-4-4-4-4-4-4-|
E|-5-5-5-5---------|-2-2-2-2-2-2-2-2-|-5-5-5-5-4-4-4-4-|-2-2-2-2-2-2-2-2-|

"I'm back in from the cold,           Something you can't fake"
Guitar 1
e|-----------------|-----------------|-----------------|-----------------|
B|-----------------|-----------------|-----------------|-----------------|
G|-4---4-4-4-4-4-4-|-6---6-6-6-6-6-6-|-7---7-7-7-7-7-7-|-9-9-9-9-9-9-9-9-|
D|-4---4-4-4-4-4-4-|-6---6-6-6-6-6-6-|-7---7-7-7-7-7-7-|-9-9-9-9-9-9-9-9-|
A|-2---2-2-2-2-2-2-|-4---4-4-4-4-4-4-|-5---5-5-5-5-5-5-|-7-7-7-7-7-7-7-7-|
E|-----------------|-----------------|-----------------|-----------------|
                                                                         |
Guitar 2                                                                 |
e|---------0-------|---------0-------|---------0-------|---------0-------|
B|-----0---0---0---|-----0---0---0---|-----0---0---0---|-----0---0---0---|
G|-4---4-------4---|-6---6-------6---|-7---7-------7---|-9---9-------9---|
D|-4---------------|-6---------------|-7---------------|-9---------------|
A|-2---------------|-4---------------|-5---------------|-7---------------|
E|-----------------|-----------------|-----------------|-----------------|

"True feelings on parole,              We're all afraid"
Guitar 1                                  PM___________
e|-----------------|-----------------|-----------------|-----------------|
B|-----------------|-----------------|-----------------|-----------------|
G|-4---4-4-4-4-4-4-|-6---6-6-6-6-6-6-|-7---7-7-7-7-7-7-|-7-6-6-6-6-4-4-4-|
D|-4---4-4-4-4-4-4-|-6---6-6-6-6-6-6-|-7---7-7-7-7-7-7-|-7-6-6-6-6-4-4-4-|
A|-2---2-2-2-2-2-2-|-4---4-4-4-4-4-4-|-5---5-5-5-5-5-5-|-5-4-4-4-4-2-2-2-|
E|-----------------|-----------------|-----------------|-----------------|
                                                                         |
Guitar 2                                  PM___________                  |
e|---------0-------|---------0-------|-----------------|-----------------|
B|-----0---0---0---|-----0---0---0---|-----------------|-----------------|
G|-4---4-------4---|-6---6-------6---|-7---7-7-7-7-7-7-|-7-6-6-6-6-4-4-4-|
D|-4---------------|-6---------------|-7---7-7-7-7-7-7-|-----------------|
A|-2---------------|-4---------------|-5---5-5-5-5-5-5-|-5-4-4-4-4-2-2-2-|
E|-----------------|-----------------|-----------------|-----------------|

Solo
Guitar 1
PM_______________________________________________________________________
e|-----------------|-----------------|-----------------|-----------------|
B|-----------------|-----------------|-----------------|-----------------|
G|---------6-6-6-6-|-----------------|---------6-6-6-6-|-----------------|
D|-7-7-7-7-6-6-6-6-|-4-4-4-4-4-4-4-4-|-7-7-7-7-6-6-6-6-|-4-4-4-4-4-4-4-4-|
A|-7-7-7-7-4-4-4-4-|-4-4-4-4-4-4-4-4-|-7-7-7-7-4-4-4-4-|-4-4-4-4-4-4-4-4-|
E|-5-5-5-5---------|-2-2-2-2-2-2-2-2-|-5-5-5-5---------|-2-2-2-2-2-2-2-2-|
                                                                         |
Guitar 2                                                                 |
e|-----------------|-----------------|-----5---5---4---|-----------------|
B|-----------------|-----------------|-----------------|-----------------|
G|---------9---9-9-|-7---6-----------|-----------------|-6---------------|
D|-----7-----------|---------7-------|-----------------|-----------------|
A|-----------------|-----------------|-----------------|-----------------|
E|-----------------|-----------------|-----------------|-----------------|

Guitar 1
PM___________________________________
e|-----------------|-----------------|-----------------|-----------------|
B|-----------------|-----------------|-----------------|-----------------|
G|---------6-6-6-6-|-----------------|-----------------|-----------------|
D|-7-7-7-7-6-6-6-6-|-4-4-4-4-4-4-4-4-|-7-7-7-7-6-6-6-6-|-4-4-4-4-4-4-4-4-|
A|-7-7-7-7-4-4-4-4-|-4-4-4-4-4-4-4-4-|-7-7-7-7-6-6-6-6-|-4-4-4-4-4-4-4-4-|
E|-5-5-5-5---------|-2-2-2-2-2-2-2-2-|-5-5-5-5-4-4-4-4-|-2-2-2-2-2-2-2-2-|
                                                                         |
Guitar 2                                                                 |
e|-----------------|-----------------|-----------------|-----------------|
B|-----------------|-----------------|-----------------|-----------------|
G|---------9---9-9-|-7---6-----------|-6---6-------6---|-----------------|
D|-----7-----------|---------7-------|---------9-------|-7---------------|
A|-----------------|-----------------|-----------------|-----------------|
E|-----------------|-----------------|-----------------|-----------------|

Chorus 2
"Sixty mile smile (on and on and on and on)"
e|-----------------|-----------------|-----------------|-----------------|
B|-----------------|-----------------|-----------------|-----------------|
G|-----------------|-6-6-6-6-6-6-6-6-|-----------------|-----------------|
D|-7-7-7-7-7-7-7-7-|-6-6-6-6-6-6-6-6-|-4-4-4-4-4-4-4-4-|-4-4-4-4-4-4-4-4-|
A|-7-7-7-7-7-7-7-7-|-4-4-4-4-4-4-4-4-|-4-4-4-4-4-4-4-4-|-4-4-4-4-4-4-4-4-|
E|-5-5-5-5-5-5-5-5-|-----------------|-2-2-2-2-2-2-2-2-|-2-2-2-2-2-2-2-2-|

"Sixty mile smile (on and on and on and on)"
                                                        PM_______________
e|-----------------|-----------------|-----------------|-----------------|
B|-----------------|-----------------|-----------------|-----------------|
G|-----------------|-6-6-6-6-6-6-6-6-|-----------------|-----------------|
D|-7-7-7-7-7-7-7-7-|-6-6-6-6-6-6-6-6-|-4-4-4-4-4-4-4-4-|-4-4-4-4-4-4-4-4-|
A|-7-7-7-7-7-7-7-7-|-4-4-4-4-4-4-4-4-|-4-4-4-4-4-4-4-4-|-4-4-4-4-4-4-4-4-|
E|-5-5-5-5-5-5-5-5-|-----------------|-2-2-2-2-2-2-2-2-|-2-2-2-2-2-2-2-2-|

"Appetites of the soul                in teeth of a snake"
Guitar 1
e|-----------------|-----------------|-----------------|-----------------|
B|-----------------|-----------------|-----------------|-----------------|
G|-4---4-4-4-4-4-4-|-6---6-6-6-6-6-6-|-7---7-7-7-7-7-7-|-9-9-9-9-9-9-9-9-|
D|-4---4-4-4-4-4-4-|-6---6-6-6-6-6-6-|-7---7-7-7-7-7-7-|-9-9-9-9-9-9-9-9-|
A|-2---2-2-2-2-2-2-|-4---4-4-4-4-4-4-|-5---5-5-5-5-5-5-|-7-7-7-7-7-7-7-7-|
E|-----------------|-----------------|-----------------|-----------------|
                                                                         |
Guitar 2                                                                 |
e|-----------------|-----------------|-----------------|-----------------|
B|-----------------|-----------------|-----------------|-----------------|
G|-4------7--6--4--|-6------7--6--4--|-7------7--6--4--|-9---9-9-9-4-4-4-|
D|-----------------|-----------------|-----------------|-----------------|
A|-2------5--4--2--|-4------5--4--2--|-5------5--4--2--|-7---7-7-7-2-2-2-|
E|-----------------|-----------------|-----------------|-----------------|

"In a crowd your alone,                you're all afraid"
Guitar 1                                  
e|-----------------|-----------------|-----------------|-----------------|
B|-----------------|-----------------|-----------------|-----------------|
G|-4---4-4-4-4-4-4-|-6---6-6-6-6-6-6-|-7---7-7-7-7-7-7-|-7-7-7-7-7-7-7-7-|
D|-4---4-4-4-4-4-4-|-6---6-6-6-6-6-6-|-7---7-7-7-7-7-7-|-7-7-7-7-7-7-7-7-|
A|-2---2-2-2-2-2-2-|-4---4-4-4-4-4-4-|-5---5-5-5-5-5-5-|-5-5-5-5-5-5-5-5-|
E|-----------------|-----------------|-----------------|-----------------|
                                                                         |
Guitar 2                                                                 |
e|-----------------|-----------------|-----------------|-----------------|
B|-----------------|-----------------|-----------------|-----------------|
G|-4------7--6--4--|-6------7--6--4--|-7---7-7-7-7-7-7-|-7-7-7-7-7-7-7-7-|
D|-----------------|-----------------|-7---7-7-7-7-7-7-|-7-7-7-7-7-7-7-7-|
A|-2------5--4--2--|-4------5--4--2--|-5---5-5-5-5-5-5-|-5-5-5-5-5-5-5-5-|
E|-----------------|-----------------|-----------------|-----------------|

"you're all afraid,                   you're all afraid"
Guitar 1
e|-----------------|-----------------|-----------------|-----------------|
B|-----------------|-----------------|-----------------|-----------------|
G|-----------------|-----------------|-7-7-7-7-7-7-7-7-|-7-7-7-7-7-7-7-7-|
D|-5-5-5-5-5-5-5-5-|-5-5-5-5-5-5-5-5-|-7-7-7-7-7-7-7-7-|-7-7-7-7-7-7-7-7-|
A|-5-5-5-5-5-5-5-5-|-5-5-5-5-5-5-5-5-|-5-5-5-5-5-5-5-5-|-5-5-5-5-5-5-5-5-|
E|-3-3-3-3-3-3-3-3-|-3-3-3-3-3-3-3-3-|-----------------|-----------------|
                                                                         |
Guitar 2                                                                 |
e|-3---3-3-3-3-3-3-|-3-3-3-3-3-3-3-3-|-----------------|-----------------|
B|-3---3-3-3-3-3-3-|-3-3-3-3-3-3-3-3-|-----------------|-----------------|
G|-0---0-0-0-0-0-0-|-0-0-0-0-0-0-0-0-|-7-7-7-7-7-7-7-7-|-7-7-7-7-7-7-7-7-|
D|-0---0-0-0-0-0-0-|-0-0-0-0-0-0-0-0-|-7-7-7-7-7-7-7-7-|-7-7-7-7-7-7-7-7-|
A|-2---2-2-2-2-2-2-|-2-2-2-2-2-2-2-2-|-5-5-5-5-5-5-5-5-|-5-5-5-5-5-5-5-5-|
E|-3---3-3-3-3-3-3-|-3-3-3-3-3-3-3-3-|-----------------|-----------------|

Guitar 1
e|-----------------|-----------------|
B|-----------------|-----------------|
G|-----------------|-----------------|
D|-7-7-7-7-7-7-7-7-|-------------6---|
A|-7-7-7-7-7-7-7-7-|-------------6---|
E|-5-5-5-5-5-5-5-5-|-------------4---|
                                     |
Guitar 2 a = 10                      |
e|-----------------|-----------------|
B|-a-a-a-a-a-a-a-a-|-a-a-a-a-a-------|
G|-9-9-9-9-9-9-9-9-|-9-9-9-9-9-------|
D|-7-7-7-7-7-7-7-7-|-7-7-7-7-7-------|
A|-----------------|-----------------|
E|-----------------|-----------------|

"To smile the sixty mile smile"
Guitar 1                                                
PM_______________________________________________________________________
e|-----------------|-----------------|-----------------|-----------------|
B|-----------------|-----------------|-----------------|-----------------|
G|---------6-6-6-6-|-----------------|---------6-6-6-6-|-----------------|
D|-7-7-7-7-6-6-6-6-|-4-4-4-4-4-4-4-4-|-7-7-7-7-6-6-6-6-|-4-4-4-4-4-4-4-4-|
A|-7-7-7-7-4-4-4-4-|-4-4-4-4-4-4-4-4-|-7-7-7-7-4-4-4-4-|-4-4-4-4-4-4-4-4-|
E|-5-5-5-5---------|-2-2-2-2-2-2-2-2-|-5-5-5-5---------|-2-2-2-2-2-2-2-2-|
                                                                         |
Guitar 2                                                                 |
PM_______________________________________________________________________|
e|-----------------|-----------------|-----------------|-----------------|
B|-----------------|-----------------|-----------------|-7-7-7-7-7-7-7-7-|
G|---------6-6-6-6-|-----------------|---------6-6-6-6-|-6-6-6-6-6-6-6-6-|
D|-7-7-7-7-6-6-6-6-|-4-4-4-4-4-4-4-4-|-7-7-7-7-6-6-6-6-|-4-4-4-4-4-4-4-4-|
A|-7-7-7-7-4-4-4-4-|-4-4-4-4-4-4-4-4-|-7-7-7-7-4-4-4-4-|-----------------|
E|-5-5-5-5---------|-2-2-2-2-2-2-2-2-|-5-5-5-5---------|-----------------|

"To smile the sixty mile smile"
PM_______________________________________________________________________
e|-----------------|-----------------|-----------------|-----------------|
B|-----------------|-----------------|-----------------|-----------------|
G|---------6-6-6-6-|-----------------|-----------------|-----------------|
D|-7-7-7-7-6-6-6-6-|-4-4-4-4-4-4-4-4-|-7-7-7-7-6-6-6-6-|-4-4-4-4-4-4-4-4-|
A|-7-7-7-7-4-4-4-4-|-4-4-4-4-4-4-4-4-|-7-7-7-7-6-6-6-6-|-4-4-4-4-4-4-4-4-|
E|-5-5-5-5---------|-2-2-2-2-2-2-2-2-|-5-5-5-5-4-4-4-4-|-2-2-2-2-2-2-2-2-|

"So smile the sixty mile smile (on and on and on and on)"
e|-----------------|-----------------|-----------------|-----------------|
B|-----------------|-----------------|-----------------|-----------------|
G|---------6-6-6-6-|-----------------|---------6-6-6-6-|-----------------|
D|-7-7-7-7-6-6-6-6-|-4-4-4-4-4-4-4-4-|-7-7-7-7-6-6-6-6-|-4-4-4-4-4-4-4-4-|
A|-7-7-7-7-4-4-4-4-|-4-4-4-4-4-4-4-4-|-7-7-7-7-4-4-4-4-|-4-4-4-4-4-4-4-4-|
E|-5-5-5-5---------|-2-2-2-2-2-2-2-2-|-5-5-5-5---------|-2-2-2-2-2-2-2-2-|

"So smile the sixty mile smile (on and on and on and on)"
e|-----------------|-----------------|-----------------|-0---------------|
B|-----------------|-----------------|-----------------|-0---------------|
G|---------6-6-6-6-|-----------------|-----------------|-3---------------|
D|-7-7-7-7-6-6-6-6-|-4-4-4-4-4-4-4-4-|-7-7-7-7-6-6-6-6-|-4---------------|
A|-7-7-7-7-4-4-4-4-|-4-4-4-4-4-4-4-4-|-7-7-7-7-6-6-6-6-|-4---------------|
E|-5-5-5-5---------|-2-2-2-2-2-2-2-2-|-5-5-5-5-4-4-4-4-|-2---------------|

__________________________________________________________________________________________________

7.  Sunny in England

Intro
Guitar 1
e|-----------------|-----------------|-----------------|-----------------|
B|-----------------|-----------------|-----------------|-----------------|
G|-9-9-9-9-9-9-9-9-|-8-8-8-8-8-8-8-8-|-----------------|-----------------|
D|-9-9-9-9-9-9-9-9-|-8-8-8-8-8-8-8-8-|-9-9-9-9-9-9-9-9-|-7-7-7-7-7-7-7-7-|
A|-7-7-7-7-7-7-7-7-|-6-6-6-6-6-6-6-6-|-9-9-9-9-9-9-9-9-|-7-7-7-7-7-7-7-7-|
E|-----------------|-----------------|-7-7-7-7-7-7-7-7-|-5-5-5-5-5-5-5-5-|
                                                                         |
Guitar 2 play trill                                                      |
e|-----------------|-----------------|-----------------|-----------------|
B|-----------------|-----------------|-----------------|-----------------|
G|-9---9----9------|-8---8---8-------|-----------------|-----------------|
D|-----------------|-----------------|-9---9---9-------|-7---7---7-------|
A|-----------------|-----------------|-----------------|-----------------|
E|-----------------|-----------------|-----------------|-----------------|

Guitar 1                             PM_____________________grad release
e|-----------------|-----------------|-----------------|-----------------|
B|-----------------|-----------------|-----------------|-----------------|
G|-9-9-9-9-9-9-9-9-|-8-8-8-8-8-8-8-8-|-6-6-6-6-6-6-6-6-|-6-6-6-6-6-6-6-6-|
D|-9-9-9-9-9-9-9-9-|-8-8-8-8-8-8-8-8-|-6-6-6-6-6-6-6-6-|-6-6-6-6-6-6-6-6-|
A|-7-7-7-7-7-7-7-7-|-6-6-6-6-6-6-6-6-|-4-4-4-4-4-4-4-4-|-4-4-4-4-4-4-4-4-|
E|-----------------|-----------------|-----------------|-----------------|
                                                                         |
Guitar 2                                                                 |
e|-----------------|-----------------|-----------------|-----------------|
B|-----------------|-----------------|-----------------|-----------------|
G|-9---9----9------|-8---8---8-------|-6-6-6-6-6-6-6-6-|-6-6-6-6-6-6-6-6-|
D|-----------------|-----------------|-----------------|-----------------|
A|-----------------|-----------------|-----------------|-----------------|
E|-----------------|-----------------|-----------------|-----------------|

Verse 1 
"In my head, I can get so far away.  The colors here are bright, not black or gray"
e|-----------------|-----------------|-----------------|-----------------|
B|-3---3-----------|-----------------|-3---3-----------|-----------------|
G|-2---2---2---2---|-x-x-x---xxxxxxx-|-2---2---2---2---|-x-x-x---xxxxxxx-|
D|-0---0---2---2---|-x-x-x---xxxxxxx-|-0---0---2---2---|-x-x-x---xxxxxxx-|
A|---------0---0---|-x-x-x---xxxxxxx-|---------0---0---|-x-x-x---xxxxxxx-|
E|-----------------|-----------------|-----------------|-----------------|

"And my imaginary friends, we always get our way. The madness never ends and I just wanna stay"
e|-----------------|-----------------|-----------------|-----------------|
B|-3---3-----------|-----------------|-3---3-----------|-----------------|
G|-2---2---2---2---|-x-x-x---xxxxxxx-|-2---2---2---2---|-x-x-x---xxxxxxx-|
D|-0---0---2---2---|-x-x-x---xxxxxxx-|-0---0---2---2---|-x-x-x---xxxxxxx-|
A|---------0---0---|-x-x-x---xxxxxxx-|---------0---0---|-x-x-x---xxxxxxx-|
E|-----------------|-----------------|-----------------|-----------------|

Break
"But then I wake to seek escape" 
Guitar 1
e|-----------------|-----------------|-----------------|-----------------|
B|-----------------|-----------------|-----------------|-----------------|
G|-4-4-4-4-4-4-4-4-|-----------------|-7-7-7-7-7-7-7-7-|-----------------|
D|-4-4-4-4-4-4-4-4-|-4-4-4-4-4-4-4-4-|-7-7-7-7-7-7-7-7-|-7-7-7-7-7-7-7-7-|
A|-2-2-2-2-2-2-2-2-|-4-4-4-4-4-4-4-4-|-5-5-5-5-5-5-5-5-|-7-7-7-7-7-7-7-7-|
E|-----------------|-2-2-2-2-2-2-2-2-|-----------------|-5-5-5-5-5-5-5-5-|
                                                                         |
Guitar 2                                                                 |
e|-----------------|-----------------|-----------------|-----------------|
B|-7---7---7---7---|-2---2---2---2---|-10--10--10--10--|-5---5---5---5---|
G|-9b--9b--9b--9b--|-4b--4b--4b--4b--|-12b-12b-12b-12b-|-7b--7b--7b--7b--|
D|-----------------|-----------------|-----------------|-----------------|
A|-----------------|-----------------|-----------------|-----------------|
E|-----------------|-----------------|-----------------|-----------------|

"escape again"
Guitar 1
e|-----------------|-----------------|
B|-----------------|-----------------|
G|-6-6-6-6-6-6-6-6-|-6-6-6-6-6-6-6-6-|
D|-6-6-6-6-6-6-6-6-|-6-6-6-6-6-6-6-6-|
A|-4-4-4-4-4-4-4-4-|-4-4-4-4-4-4-4-4-|
E|-----------------|-----------------|
                                     |
Guitar 2                             |
e|-----------------|-----------------|
B|-9---9---9---9---|-9---9---9---9---|
G|-11b-11b-11b-11b-|-11b-11b-11b-11b-|
D|-----------------|-----------------|
A|-----------------|-----------------|
E|-----------------|-----------------|

Verse 2
"Hey, hey, hey, this day has gone to fast, With people like you, make it seem like it's the last"
e|-----------------|-----------------|-----------------|-----------------|
B|-3---3-----------|-----------------|-3---3-----------|-----------------|
G|-2---2---2---2---|-x-x-x---xxxxxxx-|-2---2---2---2---|-x-x-x---xxxxxxx-|
D|-0---0---2---2---|-x-x-x---xxxxxxx-|-0---0---2---2---|-x-x-x---xxxxxxx-|
A|---------0---0---|-x-x-x---xxxxxxx-|---------0---0---|-x-x-x---xxxxxxx-|
E|-----------------|-----------------|-----------------|-----------------|

"Selfish, helpless and not a part of me, You'll never make me what I don't wanna be"
e|-----------------|-----------------|-----------------|-----------------|
B|-3---3-----------|-----------------|-3---3-----------|-----------------|
G|-2---2---2---2---|-x-x-x---xxxxxxx-|-2---2---2---2---|-x-x-x---xxxxxxx-|
D|-0---0---2---2---|-x-x-x---xxxxxxx-|-0---0---2---2---|-x-x-x---xxxxxxx-|
A|---------0---0---|-x-x-x---xxxxxxx-|---------0---0---|-x-x-x---xxxxxxx-|
E|-----------------|-----------------|-----------------|-----------------|


Break
"Your words spread 'round the same dead town"
Guitar 1
e|-----------------|-----------------|-----------------|-----------------|
B|-----------------|-----------------|-----------------|-----------------|
G|-4-4-4-4-4-4-4-4-|-----------------|-7-7-7-7-7-7-7-7-|-----------------|
D|-4-4-4-4-4-4-4-4-|-4-4-4-4-4-4-4-4-|-7-7-7-7-7-7-7-7-|-7-7-7-7-7-7-7-7-|
A|-2-2-2-2-2-2-2-2-|-4-4-4-4-4-4-4-4-|-5-5-5-5-5-5-5-5-|-7-7-7-7-7-7-7-7-|
E|-----------------|-2-2-2-2-2-2-2-2-|-----------------|-5-5-5-5-5-5-5-5-|
                                                                         |
Guitar 2                                                                 |
e|-----------------|-----------------|-----------------|-----------------|
B|-7---7---7---7---|-2---2---2---2---|-10--10--10--10--|-5---5---5---5---|
G|-9b--9b--9b--9b--|-4b--4b--4b--4b--|-12b-12b-12b-12b-|-7b--7b--7b--7b--|
D|-----------------|-----------------|-----------------|-----------------|
A|-----------------|-----------------|-----------------|-----------------|
E|-----------------|-----------------|-----------------|-----------------|

"Dead town and streets"
Guitar 1
e|-----------------|-----------------|
B|-----------------|-----------------|
G|-6-6-6-6-6-6-6-6-|-6-6-6-6-6-6-6-6-|
D|-6-6-6-6-6-6-6-6-|-6-6-6-6-6-6-6-6-|
A|-4-4-4-4-4-4-4-4-|-4-4-4-4-4-4-4-4-|
E|-----------------|-----------------|
                                     |
Guitar 2                             |
e|-----------------|-----------------|
B|-9---9---9---9---|-9---9---9---9---|
G|-11b-11b-11b-11b-|-11b-11b-11b-11b-|
D|-----------------|-----------------|
A|-----------------|-----------------|
E|-----------------|-----------------|

Chorus 1
"You'll never       see               what I            believe"
Guitar 1
e|-----------------|-----------------|-----------------|-----------------|
B|-----------------|-----------------|-----------------|-----------------|
G|-9-9-9-9-9-9-9-9-|-8-8-8-8-8-8-8-8-|-----------------|-----------------|
D|-9-9-9-9-9-9-9-9-|-8-8-8-8-8-8-8-8-|-9-9-9-9-9-9-9-9-|-7-7-7-7-7-7-7-7-|
A|-7-7-7-7-7-7-7-7-|-6-6-6-6-6-6-6-6-|-9-9-9-9-9-9-9-9-|-7-7-7-7-7-7-7-7-|
E|-----------------|-----------------|-7-7-7-7-7-7-7-7-|-5-5-5-5-5-5-5-5-|
                                                                         |
Guitar 2 play trill                                                      |
e|-----------------|-----------------|-----------------|-----------------|
B|-----------------|-----------------|-----------------|-----------------|
G|-9---9----9------|-8---8---8-------|-----------------|-----------------|
D|-----------------|-----------------|-9---9---9-------|-7---7---7-------|
A|-----------------|-----------------|-----------------|-----------------|
E|-----------------|-----------------|-----------------|-----------------|

"Till it's          sunny in          England" 
Guitar 1                             
e|-----------------|-----------------|-----------------|-----------------|
B|-----------------|-----------------|-----------------|-----------------|
G|-9-9-9-9-9-9-9-9-|-8-8-8-8-8-8-8-8-|-6-6-6-6-6-6-6-6-|-6-6-6-6-6-6-6-6-|
D|-9-9-9-9-9-9-9-9-|-8-8-8-8-8-8-8-8-|-6-6-6-6-6-6-6-6-|-6-6-6-6-6-6-6-6-|
A|-7-7-7-7-7-7-7-7-|-6-6-6-6-6-6-6-6-|-4-4-4-4-4-4-4-4-|-4-4-4-4-4-4-4-4-|
E|-----------------|-----------------|-----------------|-----------------|
                                                                         |
Guitar 2                                                                 |
e|-----------------|-----------------|-----------------|-----------------|
B|-----------------|-----------------|-----------------|-----------------|
G|-9---9----9------|-8---8---8-------|-6-6-6-6-6-6-6-6-|-6-6-6-6-6-6-6-6-|
D|-----------------|-----------------|-----------------|-----------------|
A|-----------------|-----------------|-----------------|-----------------|
E|-----------------|-----------------|-----------------|-----------------|

"yeah,yeah"
Guitar 1
e|-----------------|-----------------|-----------------|-----------------|
B|-3---3-----------|-----------------|-3---3-----------|-----------------|
G|-2---2---2---2---|-x-x-x---xxxxxxx-|-2---2---2---2---|-x-x-x---xxxxxxx-|
D|-0---0---2---2---|-x-x-x---xxxxxxx-|-0---0---2---2---|-x-x-x---xxxxxxx-|
A|---------0---0---|-x-x-x---xxxxxxx-|---------0---0---|-x-x-x---xxxxxxx-|
E|-----------------|-----------------|-----------------|-----------------|
                                                                         |
Guitar 2                                                                 |
e|-----------------|-----------------|-----------------|-----------------|
B|-----------------|-----------------|-----------------|-----------------|
G|-7---7-----------|-7-7-7---7777777-|-7---7-----------|-7-7-7---7777777-|
D|-7---7---7---7---|-----------------|-7---7---7---7---|-----------------|
A|-5---5---7---7---|-5-5-5---5555555-|-5---5---7---7---|-5-5-5---5555555-|
E|---------5---5---|-----------------|---------5---5---|-----------------|

Guitar 1
e|-----------------|-----------------|-----------------|-----------------|
B|-3---3-----------|-----------------|-3---3-----------|-----------------|
G|-2---2---2---2---|-x-x-x---xxxxxxx-|-2---2---2---2---|-x-x-x---xxxxxxx-|
D|-0---0---2---2---|-x-x-x---xxxxxxx-|-0---0---2---2---|-x-x-x---xxxxxxx-|
A|---------0---0---|-x-x-x---xxxxxxx-|---------0---0---|-x-x-x---xxxxxxx-|
E|-----------------|-----------------|-----------------|-----------------|
                                                                         |
Guitar 2                                                                 |
e|-----------------|-----------------|-----------------|-----------------|
B|-----------------|-----------------|-----------------|-----------------|
G|-7---7-----------|-7-7-7---7777777-|-7---7-----------|-7-7-7---7777777-|
D|-7---7---7---7---|-----------------|-7---7---7---7---|-----------------|
A|-5---5---7---7---|-5-5-5---5555555-|-5---5---7---7---|-5-5-5---5555555-|
E|---------5---5---|-----------------|---------5---5---|-----------------|

Break
"And in the rain you soak the pain"
Guitar 1
e|-----------------|-----------------|-----------------|-----------------|
B|-----------------|-----------------|-----------------|-----------------|
G|-4-4-4-4-4-4-4-4-|-----------------|-7-7-7-7-7-7-7-7-|-----------------|
D|-4-4-4-4-4-4-4-4-|-4-4-4-4-4-4-4-4-|-7-7-7-7-7-7-7-7-|-7-7-7-7-7-7-7-7-|
A|-2-2-2-2-2-2-2-2-|-4-4-4-4-4-4-4-4-|-5-5-5-5-5-5-5-5-|-7-7-7-7-7-7-7-7-|
E|-----------------|-2-2-2-2-2-2-2-2-|-----------------|-5-5-5-5-5-5-5-5-|
                                                                         |
Guitar 2                                                                 |
e|-----------------|-----------------|-----------------|-----------------|
B|-7---7---7---7---|-2---2---2---2---|-10--10--10--10--|-5---5---5---5---|
G|-9b--9b--9b--9b--|-4b--4b--4b--4b--|-12b-12b-12b-12b-|-7b--7b--7b--7b--|
D|-----------------|-----------------|-----------------|-----------------|
A|-----------------|-----------------|-----------------|-----------------|
E|-----------------|-----------------|-----------------|-----------------|

"And grieve and all you do is grieve"
Guitar 1
e|-----------------|-----------------|
B|-----------------|-----------------|
G|-6-6-6-6-6-6-6-6-|-6-6-6-6-6-6-6-6-|
D|-6-6-6-6-6-6-6-6-|-6-6-6-6-6-6-6-6-|
A|-4-4-4-4-4-4-4-4-|-4-4-4-4-4-4-4-4-|
E|-----------------|-----------------|
                                     |
Guitar 2                             |
e|-----------------|-----------------|
B|-9---9---9---9---|-9---9---9---9---|
G|-11b-11b-11b-11b-|-11b-11b-11b-11b-|
D|-----------------|-----------------|
A|-----------------|-----------------|
E|-----------------|-----------------|

Outro Chorus
"You'll never       see               what I            believe"
Guitar 1
e|-----------------|-----------------|-----------------|-----------------|
B|-----------------|-----------------|-----------------|-----------------|
G|-9-9-9-9-9-9-9-9-|-8-8-8-8-8-8-8-8-|-----------------|-----------------|
D|-9-9-9-9-9-9-9-9-|-8-8-8-8-8-8-8-8-|-9-9-9-9-9-9-9-9-|-7-7-7-7-7-7-7-7-|
A|-7-7-7-7-7-7-7-7-|-6-6-6-6-6-6-6-6-|-9-9-9-9-9-9-9-9-|-7-7-7-7-7-7-7-7-|
E|-----------------|-----------------|-7-7-7-7-7-7-7-7-|-5-5-5-5-5-5-5-5-|
                                                                         |
Guitar 2 play trill                                                      |
e|-----------------|-----------------|-----------------|-----------------|
B|-----------------|-----------------|-----------------|-----------------|
G|-9---9----9------|-8---8---8-------|-----------------|-----------------|
D|-----------------|-----------------|-9---9---9-------|-7---7---7-------|
A|-----------------|-----------------|-----------------|-----------------|
E|-----------------|-----------------|-----------------|-----------------|

"Till it's          sunny in          England" 
Guitar 1                             
e|-----------------|-----------------|-----------------|-----------------|
B|-----------------|-----------------|-----------------|-----------------|
G|-9-9-9-9-9-9-9-9-|-8-8-8-8-8-8-8-8-|-6-6-6-6-6-6-6-6-|-6-6-6-6-6-6-6-6-|
D|-9-9-9-9-9-9-9-9-|-8-8-8-8-8-8-8-8-|-6-6-6-6-6-6-6-6-|-6-6-6-6-6-6-6-6-|
A|-7-7-7-7-7-7-7-7-|-6-6-6-6-6-6-6-6-|-4-4-4-4-4-4-4-4-|-4-4-4-4-4-4-4-4-|
E|-----------------|-----------------|-----------------|-----------------|
                                                                         |
Guitar 2                                                                 |
e|-----------------|-----------------|-----------------|-----------------|
B|-----------------|-----------------|-----------------|-----------------|
G|-9---9----9------|-8---8---8-------|-6-6-6-6-6-6-6-6-|-6-6-6-6-6-6-6-6-|
D|-----------------|-----------------|-----------------|-----------------|
A|-----------------|-----------------|-----------------|-----------------|
E|-----------------|-----------------|-----------------|-----------------|

"Sometimes         I lose             this memory"
Guitar 1
e|-----------------|-----------------|-----------------|-----------------|
B|-----------------|-----------------|-----------------|-----------------|
G|-9-9-9-9-9-9-9-9-|-8-8-8-8-8-8-8-8-|-7-7-7-7-7-7-7-7-|-----------------|
D|-9-9-9-9-9-9-9-9-|-8-8-8-8-8-8-8-8-|-7-7-7-7-7-7-7-7-|-7-7-7-7-7-7-7-7-|
A|-7-7-7-7-7-7-7-7-|-6-6-6-6-6-6-6-6-|-5-5-5-5-5-5-5-5-|-7-7-7-7-7-7-7-7-|
E|-----------------|-----------------|-----------------|-5-5-5-5-5-5-5-5-|
                                                                         |
Guitar 2                                                                 |
e|-----------------|-----------------|-----------------|-----------------|
B|-----------------|-----------------|-----------------|-----------------|
G|-9---9----9------|-8---8---8-------|-7---7---7-------|-----------------|
D|-----------------|-----------------|-----------------|-7---7---7-------|
A|-----------------|-----------------|-----------------|-----------------|
E|-----------------|-----------------|-----------------|-----------------|

"Ain't it good      to be in          England?"
Guitar 1                             
e|-----------------|-----------------|-----------------|-----------------|
B|-----------------|-----------------|-----------------|-----------------|
G|-9-9-9-9-9-9-9-9-|-8-8-8-8-8-8-8-8-|-6-6-6-6-6-6-6-6-|-6-6-6-6-6-6-6-6-|
D|-9-9-9-9-9-9-9-9-|-8-8-8-8-8-8-8-8-|-6-6-6-6-6-6-6-6-|-6-6-6-6-6-6-6-6-|
A|-7-7-7-7-7-7-7-7-|-6-6-6-6-6-6-6-6-|-4-4-4-4-4-4-4-4-|-4-4-4-4-4-4-4-4-|
E|-----------------|-----------------|-----------------|-----------------|
                                                                         |
Guitar 2                                                                 |
e|-----------------|-----------------|-----------------|-----------------|
B|-----------------|-----------------|-----------------|-----------------|
G|-9---9----9------|-8---8---8-------|-6-6-6-6-6-6-6-6-|-6-6-6-6-6-6-6-6-|
D|-----------------|-----------------|-----------------|-----------------|
A|-----------------|-----------------|-----------------|-----------------|
E|-----------------|-----------------|-----------------|-----------------|

Guitar 1
e|-----------------|-----------------|-----------------|-----------------|
B|-----------------|-----------------|-----------------|-----------------|
G|-9-9-9-9-9-9-9-9-|-8-8-8-8-8-8-8-8-|-----------------|-----------------|
D|-9-9-9-9-9-9-9-9-|-8-8-8-8-8-8-8-8-|-9-9-9-9-9-9-9-9-|-7-7-7-7-7-7-7-7-|
A|-7-7-7-7-7-7-7-7-|-6-6-6-6-6-6-6-6-|-9-9-9-9-9-9-9-9-|-7-7-7-7-7-7-7-7-|
E|-----------------|-----------------|-7-7-7-7-7-7-7-7-|-5-5-5-5-5-5-5-5-|
                                                                         |
Guitar 2         a = 10         c = 12                                   |
e|-----------------|-----------------|-----------------|-----------------|
B|-a-9-9-a-9-9-c-c-|-a-9-9-a-9-9-c-c-|-a-9-9-a-9-9-c-c-|-a-9-9-a-9-9-c-c-|
G|-----------------|-----------------|-----------------|-----------------|
D|-----------------|-----------------|-----------------|-----------------|
A|-----------------|-----------------|-----------------|-----------------|
E|-----------------|-----------------|-----------------|-----------------|

Guitar 1
e|-----------------|-----------------|-----------------|-----------------|
B|-----------------|-----------------|-----------------|-----------------|
G|-9-9-9-9-9-9-9-9-|-8-8-8-8-8-8-8-8-|-6-6-6-6-6-6-6-6-|-6-6-6-6-6-6-6-6-|
D|-9-9-9-9-9-9-9-9-|-8-8-8-8-8-8-8-8-|-6-6-6-6-6-6-6-6-|-6-6-6-6-6-6-6-6-|
A|-7-7-7-7-7-7-7-7-|-6-6-6-6-6-6-6-6-|-4-4-4-4-4-4-4-4-|-4-4-4-4-4-4-4-4-|
E|-----------------|-----------------|-----------------|-----------------|
                                                                         |
Guitar 2         a = 10         c = 12          d = 14                   |
e|-----------------|-----------------|-----------------|-----------------|
B|-a-9-9-a-9-9-c-c-|-a-9-9-a-9-9-c-c-|-d-d-d-d-d-d-d-d-|-d-d-d-d-d-c-c-c-|
G|-----------------|-----------------|-----------------|-----------------|
D|-----------------|-----------------|-----------------|-----------------|
A|-----------------|-----------------|-----------------|-----------------|
E|-----------------|-----------------|-----------------|-----------------|

Start fade out
Guitar 1
e|-----------------|-----------------|-----------------|-----------------|
B|-----------------|-----------------|-----------------|-----------------|
G|-9-9-9-9-9-9-9-9-|-8-8-8-8-8-8-8-8-|-----------------|-----------------|
D|-9-9-9-9-9-9-9-9-|-8-8-8-8-8-8-8-8-|-9-9-9-9-9-9-9-9-|-7-7-7-7-7-7-7-7-|
A|-7-7-7-7-7-7-7-7-|-6-6-6-6-6-6-6-6-|-9-9-9-9-9-9-9-9-|-7-7-7-7-7-7-7-7-|
E|-----------------|-----------------|-7-7-7-7-7-7-7-7-|-5-5-5-5-5-5-5-5-|
                                                                         |
Guitar 2         a = 10         c = 12                                   |
e|-----------------|-----------------|-----------------|-----------------|
B|-a-9-9-a-9-9-c-c-|-a-9-9-a-9-9-c-c-|-a-9-9-a-9-9-c-c-|-a-9-9-a-9-9-c-c-|
G|-----------------|-----------------|-----------------|-----------------|
D|-----------------|-----------------|-----------------|-----------------|
A|-----------------|-----------------|-----------------|-----------------|
E|-----------------|-----------------|-----------------|-----------------|

Guitar 1
e|-----------------|-----------------|-----------------|-----------------|
B|-----------------|-----------------|-----------------|-----------------|
G|-9-9-9-9-9-9-9-9-|-8-8-8-8-8-8-8-8-|-6-6-6-6-6-6-6-6-|-6-6-6-6-6-6-6-6-|
D|-9-9-9-9-9-9-9-9-|-8-8-8-8-8-8-8-8-|-6-6-6-6-6-6-6-6-|-6-6-6-6-6-6-6-6-|
A|-7-7-7-7-7-7-7-7-|-6-6-6-6-6-6-6-6-|-4-4-4-4-4-4-4-4-|-4-4-4-4-4-4-4-4-|
E|-----------------|-----------------|-----------------|-----------------|
                                                                         |
Guitar 2         a = 10         c = 12          d = 14                   |
e|-----------------|-----------------|-----------------|-----------------|
B|-a-9-9-a-9-9-c-c-|-a-9-9-a-9-9-c-c-|-d-d-d-d-d-d-d-d-|-d-d-d-d-d-c-c-c-|
G|-----------------|-----------------|-----------------|-----------------|
D|-----------------|-----------------|-----------------|-----------------|
A|-----------------|-----------------|-----------------|-----------------|
E|-----------------|-----------------|-----------------|-----------------|
__________________________________________________________________________________________________

8.  Alright Ma

Verse 1
"You were the bright young thing till you took a little sting of Victorian"
"Then it spread like a slick, made your frozen heart tick, so you passed it on"
PM_______________________________________________________________________
e|-----------------|-----------------|-----------------|-----------------|
B|-----------------|-----------------|-----------------|-----------------|
G|-----------------|-----------------|-----------------|-----------------| x2
D|-----------------|-6-6-6-6-6-6-6-6-|-4-4-4-4-4-4-4-4-|-4-4-4-4-4-4-4-4-|
A|-7-7-7-7-7-7-7-7-|-4-4-4-4-4-4-4-4-|-2-2-2-2-2-2-2-2-|-2-2-2-2-2-2-2-2-|
E|-5-5-5-5-5-5-5-5-|-----------------|-----------------|-----------------|

Chorus 1
"But I'm alright ma"
PM_____  ______  ________  ______  ________  ______  ________________  __
e|-----------------|-----------------|-----------------|-----------------|
B|-----------------|-----------------|-----------------|-----------------|
G|-----------------|-----6-------6---|-----4-------4---|-------------4---|
D|-----7-------7---|-6-6-6-6-6-6-6-6-|-4-4-4-4-4-4-4-4-|-4-4-4-4-4-4-4-4-|
A|-7-7-7-7-7-7-7-7-|-4-4-4-4-4-4-4-4-|-2-2-2-2-2-2-2-2-|-2-2-2-2-2-2-2-2-|
E|-5-5-5-5-5-5-5-5-|-----------------|-----------------|-----------------|

"I'm alright ma"
PM_____  ______  ____________________
e|-----------------|-----------------|-----------------|-----------------|
B|-----------------|-----------------|-----------------|-----------------|
G|-----------------|-----------------|-8---------------|-----------------|
D|-----7-------7---|-6-6-6-6-6-6-6-6-|-9---------------|-----------------|
A|-7-7-7-7-7-7-7-7-|-4-4-4-4-4-4-4-4-|-9---------------|-----------------|
E|-5-5-5-5-5-5-5-5-|-----------------|-7---------------|-----------------|

Verse 2
"So I kick around town see who's up and who's down I hear you're trapped again"
                    PM___________________________________________________
e|-----------------|-----------------|-----------------|-----------------|
B|-----------------|-----------------|-----------------|-----------------|
G|-----------------|-----------------|-----------------|-----------------|
D|---7------7------|-6-6-6-6-6-6-6-6-|-4-4-4-4-4-4-4-4-|-4-4-4-4-4-4-4-4-|
A|---7------7------|-4-4-4-4-4-4-4-4-|-2-2-2-2-2-2-2-2-|-2-2-2-2-2-2-2-2-|
E|---5------5------|-----------------|-----------------|-----------------|

"And you're straight on the bends, But you'd bend to be straight Cos you're your only friend"
PM_______________________________________________________________________
e|-----------------|-----------------|-----------------|-----------------|
B|-----------------|-----------------|-----------------|-----------------|
G|-----------------|-----------------|-----------------|-----------------|
D|-----------------|-6-6-6-6-6-6-6-6-|-4-4-4-4-4-4-4-4-|-4-4-4-4-4-4-4-4-|
A|-7-7-7-7-7-7-7-7-|-4-4-4-4-4-4-4-4-|-2-2-2-2-2-2-2-2-|-2-2-2-2-2-2-2-2-|
E|-5-5-5-5-5-5-5-5-|-----------------|-----------------|-----------------|

Chorus 2
"But I'm Alright Ma"
Guitar 1
e|-----------------|-----------------|-----------------|-----------------|
B|-----------------|-----------------|-----------------|-----------------|
G|-6-6-6-6-6-6-6-6-|-----------------|-----------------|-----------------|
D|-6-6-6-6-6-6-6-6-|-9-9-9-9-9-9-9-9-|-7-7-7-7-7-7-7-7-|-7-7-7-7-7-7-7-7-|
A|-4-4-4-4-4-4-4-4-|-9-9-9-9-9-9-9-9-|-7-7-7-7-7-7-7-7-|-7-7-7-7-7-7-7-7-|
E|-----------------|-7-7-7-7-7-7-7-7-|-5-5-5-5-5-5-5-5-|-5-5-5-5-5-5-5-5-|
                                                                         |
Guitar 2                                                                 |
e|-----------------|-----0-------0---|-----0-------0---|-----0-------0---|
B|-5-5-5-5-5-5-5-5-|-4-4---4-4-4---4-|-2-------2-------|-2-------2-------|
G|-----------------|-----------------|-----------------|-----------------|
D|-----------------|-----------------|-----------------|-----------------|
A|-----------------|-----------------|-----------------|-----------------|
E|-----------------|-----------------|-----------------|-----------------|

"I'm Alright Ma"
Guitar 1
e|-----------------|-----------------|-----------------|-----------------|
B|-----------------|-----------------|-----------------|-----------------|
G|-6-6-6-6-6-6-6-6-|-----------------|-----------------|-----------------|
D|-6-6-6-6-6-6-6-6-|-9-9-9-9-9-9-9-9-|-7-7-7-7-7-7-7-7-|-7-7-7-7-7-7-7-7-|
A|-4-4-4-4-4-4-4-4-|-9-9-9-9-9-9-9-9-|-7-7-7-7-7-7-7-7-|-7-7-7-7-7-7-7-7-|
E|-----------------|-7-7-7-7-7-7-7-7-|-5-5-5-5-5-5-5-5-|-5-5-5-5-5-5-5-5-|
                                                                         |
Guitar 2                                                                 |
e|-----------------|-----0-------0---|-----0-------0---|-----0-------0---|
B|-5-5-5-5-5-5-5-5-|-4-4---4-4-4---4-|-2-------2-------|-2-------2-------|
G|-----------------|-----------------|-----------------|-----------------|
D|-----------------|-----------------|-----------------|-----------------|
A|-----------------|-----------------|-----------------|-----------------|
E|-----------------|-----------------|-----------------|-----------------|

"I'm Alright Ma"
Guitar 1                                  PM_________________grad release
e|-----------------|-----------------|-----------------|-----------------|
B|-----------------|-----------------|-----------------|-----------------|
G|-6-6-6-6-6-6-6-6-|-----------------|-----------------|-----------------|
D|-6-6-6-6-6-6-6-6-|-9-9-9-9-9-9-9-9-|-4---4-4-4-4-4-4-|-4-4-4-4-4-4-4-4-|
A|-4-4-4-4-4-4-4-4-|-9-9-9-9-9-9-9-9-|-4---4-4-4-4-4-4-|-4-4-4-4-4-4-4-4-|
E|-----------------|-7-7-7-7-7-7-7-7-|-2---2-2-2-2-2-2-|-2-2-2-2-2-2-2-2-|
                                                                         |
Guitar 2                                  PM_________________grad release|
e|-----------------|-----0-------0---|-----------------|-----------------|
B|-5-5-5-5-5-5-5-5-|-4-4---4-4-4---4-|-----------------|-----------------|
G|-----------------|-----------------|-----------------|-----------------|
D|-----------------|-----------------|-4---4-4-4-4-4-4-|-4-4-4-4-4-4-4-4-|
A|-----------------|-----------------|-4---4-4-4-4-4-4-|-4-4-4-4-4-4-4-4-|
E|-----------------|-----------------|-2---2-2-2-2-2-2-|-2-2-2-2-2-2-2-2-|

Bridge 1
"Turn on the TV, and what do you know?"
Guitar 1
e|-----------------|-----------------|-----------------|-----------------|
B|-----------------|-----------------|-----------------|-----------------|
G|-----------------|-4/5-5-5---5-5-5-|-2/4-4-4---4-4-4-|-2/4-4-4---4-4-4-|
D|-4/5-5-5---5-5-5-|-4/5-5-5---5-5-5-|-2/4-4-4---4-4-4-|-2/4-4-4---4-4-4-|
A|-4/5-5-5---5-5-5-|-2/3-3-3---3-3-3-|-1/2-2-2---2-2-2-|-1/2-2-2---2-2-2-|
E|-2/3-3-3---3-3-3-|-----------------|-----------------|-----------------|
                                                                         |
Guitar 2                                                                 |
e|-----------------|-7h8-8-8---8-8-8-|-6h7-7-7---7-7-7-|-6h7-7-7---7-7-7-|
B|-7h8-8-8---8-8-8-|-----------------|-----------------|-----------------|
G|-----------------|-----------------|-----------------|-----------------|
D|-----------------|-----------------|-----------------|-----------------|
A|-----------------|-----------------|-----------------|-----------------|
E|-----------------|-----------------|-----------------|-----------------|

"Thank God, the new god, remote control"
Guitar 1
e|-----------------|-----------------|-----------------|-----------------|
B|-----------------|-----------------|-----------------|-----------------|
G|-----------------|-4/5-5-5---5-5-5-|-2/4-4-4---4-4-4-|-2/4-4-4---4-4-4-|
D|-4/5-5-5---5-5-5-|-4/5-5-5---5-5-5-|-2/4-4-4---4-4-4-|-2/4-4-4---4-4-4-|
A|-4/5-5-5---5-5-5-|-2/3-3-3---3-3-3-|-1/2-2-2---2-2-2-|-1/2-2-2---2-2-2-|
E|-2/3-3-3---3-3-3-|-----------------|-----------------|-----------------|
                                                                         |
Guitar 2                                                                 |
e|-----------------|-7h8-8-8---8-8-8-|-6h7-7-7---7-7-7-|-6h7-7-7---7-7-7-|
B|-7h8-8-8---8-8-8-|-----------------|-----------------|-----------------|
G|-----------------|-----------------|-----------------|-----------------|
D|-----------------|-----------------|-----------------|-----------------|
A|-----------------|-----------------|-----------------|-----------------|
E|-----------------|-----------------|-----------------|-----------------|

Verse 3
"Guess you had it sussed out cos you filled me in when I was young as semen"
                    PM___________________________________________________
e|-----------------|-----------------|-----------------|-----------------|
B|-----------------|-----------------|-----------------|-----------------|
G|-----------------|-----------------|-----------------|-----------------|
D|---7------7------|-6-6-6-6-6-6-6-6-|-4-4-4-4-4-4-4-4-|-4-4-4-4-4-4-4-4-|
A|---7------7------|-4-4-4-4-4-4-4-4-|-2-2-2-2-2-2-2-2-|-2-2-2-2-2-2-2-2-|
E|---5------5------|-----------------|-----------------|-----------------|

"You say your world's gone cold, I'm stood here breaking the mould, I get this feeling"
PM_______________________________________________________________________
e|-----------------|-----------------|-----------------|-----------------|
B|-----------------|-----------------|-----------------|-----------------|
G|-----------------|-----------------|-----------------|-----------------|
D|-----------------|-6-6-6-6-6-6-6-6-|-4-4-4-4-4-4-4-4-|-4-4-4-4-4-4-4-4-|
A|-7-7-7-7-7-7-7-7-|-4-4-4-4-4-4-4-4-|-2-2-2-2-2-2-2-2-|-2-2-2-2-2-2-2-2-|
E|-5-5-5-5-5-5-5-5-|-----------------|-----------------|-----------------|

Chorus 3
"But I'm Alright Ma"
Guitar 1
e|-----------------|-----------------|-----------------|-----------------|
B|-----------------|-----------------|-----------------|-----------------|
G|-6-6-6-6-6-6-6-6-|-----------------|-----------------|-----------------|
D|-6-6-6-6-6-6-6-6-|-9-9-9-9-9-9-9-9-|-7-7-7-7-7-7-7-7-|-7-7-7-7-7-7-7-7-|
A|-4-4-4-4-4-4-4-4-|-9-9-9-9-9-9-9-9-|-7-7-7-7-7-7-7-7-|-7-7-7-7-7-7-7-7-|
E|-----------------|-7-7-7-7-7-7-7-7-|-5-5-5-5-5-5-5-5-|-5-5-5-5-5-5-5-5-|
                                                                         |
Guitar 2                                                                 |
e|-----------------|-----0-------0---|-----0-------0---|-----0-------0---|
B|-5-5-5-5-5-5-5-5-|-4-4---4-4-4---4-|-2-------2-------|-2-------2-------|
G|-----------------|-----------------|-----------------|-----------------|
D|-----------------|-----------------|-----------------|-----------------|
A|-----------------|-----------------|-----------------|-----------------|
E|-----------------|-----------------|-----------------|-----------------|

"I'm Alright Ma"
Guitar 1
e|-----------------|-----------------|-----------------|-----------------|
B|-----------------|-----------------|-----------------|-----------------|
G|-6-6-6-6-6-6-6-6-|-----------------|-----------------|-----------------|
D|-6-6-6-6-6-6-6-6-|-9-9-9-9-9-9-9-9-|-7-7-7-7-7-7-7-7-|-7-7-7-7-7-7-7-7-|
A|-4-4-4-4-4-4-4-4-|-9-9-9-9-9-9-9-9-|-7-7-7-7-7-7-7-7-|-7-7-7-7-7-7-7-7-|
E|-----------------|-7-7-7-7-7-7-7-7-|-5-5-5-5-5-5-5-5-|-5-5-5-5-5-5-5-5-|
                                                                         |
Guitar 2                                                                 |
e|-----------------|-----0-------0---|-----0-------0---|-----0-------0---|
B|-5-5-5-5-5-5-5-5-|-4-4---4-4-4---4-|-2-------2-------|-2-------2-------|
G|-----------------|-----------------|-----------------|-----------------|
D|-----------------|-----------------|-----------------|-----------------|
A|-----------------|-----------------|-----------------|-----------------|
E|-----------------|-----------------|-----------------|-----------------|

"I'm Alright Ma"
Guitar 1                                  PM_________________grad release
e|-----------------|-----------------|-----------------|-----------------|
B|-----------------|-----------------|-----------------|-----------------|
G|-6-6-6-6-6-6-6-6-|-----------------|-----------------|-----------------|
D|-6-6-6-6-6-6-6-6-|-9-9-9-9-9-9-9-9-|-4---4-4-4-4-4-4-|-4-4-4-4-4-4-4-4-|
A|-4-4-4-4-4-4-4-4-|-9-9-9-9-9-9-9-9-|-4---4-4-4-4-4-4-|-4-4-4-4-4-4-4-4-|
E|-----------------|-7-7-7-7-7-7-7-7-|-2---2-2-2-2-2-2-|-2-2-2-2-2-2-2-2-|
                                                                         |
Guitar 2                                  PM_________________grad release|
e|-----------------|-----0-------0---|-----------------|-----------------|
B|-5-5-5-5-5-5-5-5-|-4-4---4-4-4---4-|-----------------|-----------------|
G|-----------------|-----------------|-----------------|-----------------|
D|-----------------|-----------------|-4---4-4-4-4-4-4-|-4-4-4-4-4-4-4-4-|
A|-----------------|-----------------|-4---4-4-4-4-4-4-|-4-4-4-4-4-4-4-4-|
E|-----------------|-----------------|-2---2-2-2-2-2-2-|-2-2-2-2-2-2-2-2-|

Bridge 2
"Dad swears and mum don't care cos she knows"
Guitar 1
e|-----------------|-----------------|-----------------|-----------------|
B|-----------------|-----------------|-----------------|-----------------|
G|-----------------|-4/5-5-5---5-5-5-|-2/4-4-4---4-4-4-|-2/4-4-4---4-4-4-|
D|-4/5-5-5---5-5-5-|-4/5-5-5---5-5-5-|-2/4-4-4---4-4-4-|-2/4-4-4---4-4-4-|
A|-4/5-5-5---5-5-5-|-2/3-3-3---3-3-3-|-1/2-2-2---2-2-2-|-1/2-2-2---2-2-2-|
E|-2/3-3-3---3-3-3-|-----------------|-----------------|-----------------|
                                                                         |
Guitar 2                                                                 |
e|-----------------|-7h8-8-8---8-8-8-|-6h7-7-7---7-7-7-|-6h7-7-7---7-7-7-|
B|-7h8-8-8---8-8-8-|-----------------|-----------------|-----------------|
G|-----------------|-----------------|-----------------|-----------------|
D|-----------------|-----------------|-----------------|-----------------|
A|-----------------|-----------------|-----------------|-----------------|
E|-----------------|-----------------|-----------------|-----------------|

"No-one hears her when her eyes are closed"
Guitar 1
e|-----------------|-----------------|-----------------|-----------------|
B|-----------------|-----------------|-----------------|-----------------|
G|-----------------|-4/5-5-5---5-5-5-|-2/4-4-4---4-4-4-|-2/4-4-4---4-4-4-|
D|-4/5-5-5---5-5-5-|-4/5-5-5---5-5-5-|-2/4-4-4---4-4-4-|-2/4-4-4---4-4-4-|
A|-4/5-5-5---5-5-5-|-2/3-3-3---3-3-3-|-1/2-2-2---2-2-2-|-1/2-2-2---2-2-2-|
E|-2/3-3-3---3-3-3-|-----------------|-----------------|-----------------|
                                                                         |
Guitar 2                                                                 |
e|-----------------|-7h8-8-8---8-8-8-|-6h7-7-7---7-7-7-|-6h7-7-7---7-7-7-|
B|-7h8-8-8---8-8-8-|-----------------|-----------------|-----------------|
G|-----------------|-----------------|-----------------|-----------------|
D|-----------------|-----------------|-----------------|-----------------|
A|-----------------|-----------------|-----------------|-----------------|
E|-----------------|-----------------|-----------------|-----------------|

"Did you get what you want Is your television keeping you happy?"
Guitar 1 (weird clean delay effect on both guitars these 4 bars)
e|-----------------|-----------------|-----------------|-----------------|
B|-5---------------|-0---------------|-5---------------|-(5)-------------|
G|-6---------------|-4---------------|-6---------------|-(6)-------------|
D|-6---------------|-4---------------|-6---------------|-(6)-------------|
A|-4---------------|-2---------------|-0---------------|-(0)-------------|
E|-----------------|-----------------|-----------------|-----------------|
                                                                         |
Guitar 2 Let ring                                                        |
e|-------0---------|-------0---------|-------0---------|-----------------|
B|-------5-----5---|-------0-----0---|-------5---------|-----------------|
G|-----6-----6---6-|-----4-----4---0-|-----6-----------|-----------------|
D|---6-------------|---4-------------|---6-------------|-----------------|
A|-----------------|-----------------|-----------------|-----------------|
E|-----------------|-----------------|-----------------|-----------------|

Solo
Guitar 1
e|-----------------|-----------------|-----0-------0---|-----------------|
B|-----------------|-----------------|-----0-------0---|-----------------|
G|-6-6-6-6-6-6-6-6-|-----------------|-----6-------6---|-----------------|
D|-6-6-6-6-6-6-6-6-|-9-9-9-9-9-9-9-9-|-7-7-7---7-7-7---|-7-7-7-7-7-7-7-7-|
A|-4-4-4-4-4-4-4-4-|-9-9-9-9-9-9-9-9-|-7-7-7---7-7-7---|-7-7-7-7-7-7-7-7-|
E|-----------------|-7-7-7-7-7-7-7-7-|-5-5-5---5-5-5---|-5-5-5-5-5-5-5-5-|
                                                                         |
Guitar 2                                                                 |
e|-----------------|-----------------|-----------------|-----------------|
B|-----------------|-----------------|-----------------|-----------------|
G|-6-6-6-6-6-6-6-6-|-8-8-8-8-8-8-8-8-|-9-9-9-9-9-9-9-9-|-9-9-9-9-9-9-9-9-|
D|-----------------|-----------------|-----------------|-----------------|
A|-4-4-4-4-4-4-4-4-|-6-6-6-6-6-6-6-6-|-7-7-7-7-7-7-7-7-|-7-7-7-7-7-7-7-7-|
E|-----------------|-----------------|-----------------|-----------------|

Guitar 1
e|-----------------|-----------------|-----0-------0---|-----------------|
B|-----------------|-----------------|-----0-------0---|-----------------|
G|-6-6-6-6-6-6-6-6-|-----------------|-----6-------6---|-----------------|
D|-6-6-6-6-6-6-6-6-|-9-9-9-9-9-9-9-9-|-7-7-7---7-7-7---|-7-7-7-7-7-7-7-7-|
A|-4-4-4-4-4-4-4-4-|-9-9-9-9-9-9-9-9-|-7-7-7---7-7-7---|-7-7-7-7-7-7-7-7-|
E|-----------------|-7-7-7-7-7-7-7-7-|-5-5-5---5-5-5---|-5-5-5-5-5-5-5-5-|
                                                                         |
Guitar 2 a = 11         b = 13          c = 14          d = 17           |
e|-----------------|-----------------|-----------------|-----------------|
B|-----------------|-----------------|-----------------|-----------------|
G|-b-b-b-b-b-b-b-b-|-d-d-d-d-d-d-d-d-|-9-9-9-9-9-9-9-9-|-9-9-9-9-9-9-9-9-|
D|-----------------|-----------------|-----------------|-----------------|
A|-a-a-a-a-a-a-a-a-|-c-c-c-c-c-c-c-c-|-7-7-7-7-7-7-7-7-|-7-7-7-7-7-7-7-7-|
E|-----------------|-----------------|-----------------|-----------------|

Verse 4
"Guess you had it sussed out cos you filled me in when I was young as semen"
e|-----------------|-----------------|-----------------|-----------------|
B|-----------------|-----------------|-----------------|-----------------|
G|--------( BASS      ONLY )---------|----4-4----4--4--|-4-4-4-4-4-4-4---|
D|-----------------|-----------------|----4-4----4--4--|-4-4-4-4-4-4-4---|
A|-----------------|-----------------|----2-2----2--2--|-2-2-2-2-2-2-2---|
E|-----------------|-----------------|-----------------|-----------------|

"You say your world's gone cold, I'm stood here breaking the mould I get this feeling"
e|-----------------|
B|-----------------|
G|-(BASS ONLY)-----|
D|-( 4  BARS )-----|
A|-----------------|
E|-----------------|

Outro Chorus 
"But I'm Alright Ma"
Guitar 1
e|-----------------|-----------------|-----------------|-----------------|
B|-----------------|-----------------|-----------------|-----------------|
G|-6-6-6-6-6-6-6-6-|-----------------|-----------------|-----------------|
D|-6-6-6-6-6-6-6-6-|-9-9-9-9-9-9-9-9-|-7-7-7-7-7-7-7-7-|-7-7-7-7-7-7-7-7-|
A|-4-4-4-4-4-4-4-4-|-9-9-9-9-9-9-9-9-|-7-7-7-7-7-7-7-7-|-7-7-7-7-7-7-7-7-|
E|-----------------|-7-7-7-7-7-7-7-7-|-5-5-5-5-5-5-5-5-|-5-5-5-5-5-5-5-5-|
                                                                         |
Guitar 2                                                                 |
e|-----------------|-----0-------0---|-----0-------0---|-----0-------0---|
B|-5-5-5-5-5-5-5-5-|-4-4---4-4-4---4-|-2-------2-------|-2-------2-------|
G|-----------------|-----------------|-----------------|-----------------|
D|-----------------|-----------------|-----------------|-----------------|
A|-----------------|-----------------|-----------------|-----------------|
E|-----------------|-----------------|-----------------|-----------------|

"I'm Alright Ma"
Guitar 1
e|-----------------|-----------------|-----------------|-----------------|
B|-----------------|-----------------|-----------------|-----------------|
G|-6-6-6-6-6-6-6-6-|-----------------|-----------------|-----------------|
D|-6-6-6-6-6-6-6-6-|-9-9-9-9-9-9-9-9-|-7-7-7-7-7-7-7-7-|-7-7-7-7-7-7-7-7-|
A|-4-4-4-4-4-4-4-4-|-9-9-9-9-9-9-9-9-|-7-7-7-7-7-7-7-7-|-7-7-7-7-7-7-7-7-|
E|-----------------|-7-7-7-7-7-7-7-7-|-5-5-5-5-5-5-5-5-|-5-5-5-5-5-5-5-5-|
                                                                         |
Guitar 2                                                                 |
e|-----------------|-----0-------0---|-----0-------0---|-----0-------0---|
B|-5-5-5-5-5-5-5-5-|-4-4---4-4-4---4-|-2-------2-------|-2-------2-------|
G|-----------------|-----------------|-----------------|-----------------|
D|-----------------|-----------------|-----------------|-----------------|
A|-----------------|-----------------|-----------------|-----------------|
E|-----------------|-----------------|-----------------|-----------------|

"I'm Alright Ma"
Guitar 1
e|-----------------|-----------------|-----------------|-----------------|
B|-----------------|-----------------|-----------------|-----------------|
G|-6-6-6-6-6-6-6-6-|-----------------|-----------------|-----------------|
D|-6-6-6-6-6-6-6-6-|-9-9-9-9-9-9-9-9-|-7-7-7-7-7-7-7-7-|-7-7-7-7-7-7-7-7-|
A|-4-4-4-4-4-4-4-4-|-9-9-9-9-9-9-9-9-|-7-7-7-7-7-7-7-7-|-7-7-7-7-7-7-7-7-|
E|-----------------|-7-7-7-7-7-7-7-7-|-5-5-5-5-5-5-5-5-|-5-5-5-5-5-5-5-5-|
                                                                         |
Guitar 2                                                                 |
e|-----------------|-----0-------0---|-----0-------0---|-----0-------0---|
B|-5-5-5-5-5-5-5-5-|-4-4---4-4-4---4-|-2-------2-------|-2-------2-------|
G|-----------------|-----------------|-----------------|-----------------|
D|-----------------|-----------------|-----------------|-----------------|
A|-----------------|-----------------|-----------------|-----------------|
E|-----------------|-----------------|-----------------|-----------------|

"I'm Alright Ma"
Guitar 1                                  
e|-----------------|-----------------|-0---------------|-----------------|
B|-----------------|-----------------|-0---------------|-----------------|
G|-6-6-6-6-6-6-6-6-|-----------------|-9---------------|-----------------|
D|-6-6-6-6-6-6-6-6-|-9-9-9-9-9-9-9-9-|-9---------------|-----------------|
A|-4-4-4-4-4-4-4-4-|-9-9-9-9-9-9-9-9-|-7---------------|-----------------|
E|-----------------|-7-7-7-7-7-7-7-7-|-----------------|-----------------|
                                                                         |
Guitar 2                                                                 |
e|-----------------|-----0-------0---|-0---------------|-----------------|
B|-5-5-5-5-5-5-5-5-|-4-4---4-4-4---4-|-0---------------|-----------------|
G|-----------------|-----------------|-1---------------|-----------------|
D|-----------------|-----------------|-2---------------|-----------------|
A|-----------------|-----------------|-2---------------|-----------------|
E|-----------------|-----------------|-0---------------|-----------------|
__________________________________________________________________________________________________

9.  Mental Blocks

Intro
Guitar 1 
e|-----------------|-----------------|-----------------|-----------------|
B|---------8-8-8-8-|---------8-8-8-8-|---------8-8-8-8-|---------8-8-8-8-|
G|-7-7-7-7-7-7-7-7-|-7-7-7-7-7-7-7-7-|-7-7-7-7-7-7-7-7-|-7-7-7-7-7-7-7-7-|
D|-7-7-7-7-5-5-5-5-|-7-7-7-7-5-5-5-5-|-7-7-7-7-5-5-5-5-|-7-7-7-7-5-5-5-5-|
A|-5-5-5-5---------|-5-5-5-5---------|-5-5-5-5---------|-5-5-5-5---------|
E|-----------------|-----------------|-----------------|-----------------|

Guitar 1 
e|-----------------|-----------------|-----------------|-----------------|
B|---------8-8-8-8-|---------8-8-8-8-|---------8-8-8-8-|---------8-8-8-8-|
G|-7-7-7-7-7-7-7-7-|-7-7-7-7-7-7-7-7-|-7-7-7-7-7-7-7-7-|-7-7-7-7-7-7-7-7-|
D|-7-7-7-7-5-5-5-5-|-7-7-7-7-5-5-5-5-|-7-7-7-7-5-5-5-5-|-7-7-7-7-5-5-5-5-|
A|-5-5-5-5---------|-5-5-5-5---------|-5-5-5-5---------|-5-5-5-5---------|
E|-----------------|-----------------|-----------------|-----------------|
                                                                         |
Guitar 2                                                                 |
e|---------3-3-3-3-|---------3-3-3-3-|---------3-3-3-3-|---------3-3-3-3-|
B|-3-3-3-3-3-3-3-3-|-3-3-3-3-3-3-3-3-|-3-3-3-3-3-3-3-3-|-3-3-3-3-3-3-3-3-|
G|-2-2-2-2-0-0-0-0-|-2-2-2-2-0-0-0-0-|-2-2-2-2-0-0-0-0-|-2-2-2-2-0-0-0-0-|
D|-0-0-0-0---------|-0-0-0-0---------|-0-0-0-0---------|-0-0-0-0---------|
A|-----------------|-----------------|-----------------|-----------------|
E|-----------------|-----------------|-----------------|-----------------|

Verse 1

"I've been thinking about this wasted time"
"Straight to middle age, I'm last in line"
"So I drug myself to get some more peace"
"'Cause you turn it like it's my last leaf"
e|-----------------|-----------------|-----------------|-----------------|
B|-----------------|-----------------|-----------------|-----------------|
G|-7---7---4---4---|---------4---4---|-----------------|-----------------| x4
D|-7---7---4---4---|-5---5---4---4-7-|---7-7-7-7-7-7-7-|-7-7-7-7-7-7-7-7-|
A|-5---5---2---2---|-5---5---2---2-7-|---7-7-7-7-7-7-7-|-7-7-7-7-7-7-7-7-|
E|-----------------|-3---3---------5-|---5-5-5-5-5-5-5-|-5-5-5-5-5-5-5-5-|

Pre chorus
"It don't feel right"
"don't taste right"
Guitar 1
e|-----------------|-----------------|-----------------|-----------------|
B|-----------------|-----------------|-----------------|-----------------|
G|-9-9-9-9-9-9-9-9-|-----------------|-----------------|-----------------|
D|-9-9-9-9-9-9-9-9-|-8-8-8-8-8-8-8-8-|-----------------|-----------------|
A|-7-7-7-7-7-7-7-7-|-8-8-8-8-8-8-8-8-|-5-/-8-\-5-/-8-\-|-5-/-8-\-5-/-8-\-|
E|-----------------|-6-6-6-6-6-6-6-6-|-3-/-6-\-3-/-6-\-|-3-/-6-\-3-/-6-\-|
                                                                         |  x2
Guitar 2 Tremlo pick and slide                                           |
e|-3--/----/----/--|-15--------------|-----------------|-----------------|
B|-----------------|-----------------|-----------------|-----------------|
G|-----------------|-----------------|-----------------|-----------------|
D|-----------------|-----------------|-----------------|-----------------|
A|-----------------|-----------------|-5-/-8-\-5-/-8-\-|-5-/-8-\-5-/-8-\-|
E|-----------------|-----------------|-3-/-6-\-3-/-6-\-|-3-/-6-\-3-/-6-\-|

Chorus
"Living in mental blocks"
e|-----------------|-----------------|-----------------|-----------------|
B|-----------------|-----------------|-----------------|-----------------|
G|-5---5---5-5-5-5-|-----------------|-----------------|-----------------|
D|-5---5---5-5-5-5-|-7---7---7-7-7-7-|-3-3-3-3-3-3-3-3-|-3-3-3-3-3-3-3-3-|
A|-3---3---3-3-3-3-|-7---7---7-7-7-7-|-3-3-3-3-3-3-3-3-|-3-3-3-3-3-3-3-3-|
E|-----------------|-5---5---5-5-5-5-|-1-1-1-1-1-1-1-1-|-1-1-1-1-1-1-1-1-|

"This is the concrete nation" (a = 10)
e|-----------------|-----------------|-----------------|-----------------|
B|-----------------|-----------------|-----------------|-----------------|
G|-5---5---5-5-5-5-|-----------------|-a-a-a-a-9-9-9-9-|-----------------|
D|-5---5---5-5-5-5-|-7---7---7-7-7-7-|-a-a-a-a-9-9-9-9-|-a-a-a-a-5-5-5-5-|
A|-3---3---3-3-3-3-|-7---7---7-7-7-7-|-8-8-8-8-7-7-7-7-|-a-a-a-a-5-5-5-5-|
E|-----------------|-5---5---5-5-5-5-|-----------------|-8-8-8-8-3-3-3-3-|

"Don't fuck with our sedation"
e|-----------------|-----------------|-----------------|-----------------|
B|-----------------|-----------------|-----------------|-----------------|
G|-5---5---5-5-5-5-|-----------------|-----------------|-----------------|
D|-5---5---5-5-5-5-|-7---7---7-7-7-7-|-3-3-3-3-3-3-3-3-|-3-3-3-3-3-3-3-3-|
A|-3---3---3-3-3-3-|-7---7---7-7-7-7-|-3-3-3-3-3-3-3-3-|-3-3-3-3-3-3-3-3-|
E|-----------------|-5---5---5-5-5-5-|-1-1-1-1-1-1-1-1-|-1-1-1-1-1-1-1-1-|

"we're alive"
Guitar 1
PM___________________________________       
e|-----------------|-----------------|-----------------|-----------------|
B|-----------------|-----------------|-7-7-7-7-7-7-7-7-|-7-7-7-7-7-7-7-7-|
G|-7-7-7-7-7-7-7-7-|-7-7-7-7-7-7-7-7-|-7-7-7-7-7-7-7-7-|-7-7-7-7-7-7-7-7-|
D|-7-7-7-7-7-7-7-7-|-7-7-7-7-7-7-7-7-|-7-7-7-7-7-7-7-7-|-7-7-7-7-7-7-7-7-|
A|-5-5-5-5-5-5-5-5-|-5-5-5-5-5-5-5-5-|-5-5-5-5-5-5-5-5-|-5-5-5-5-5-5-5-5-|
E|-----------------|-----------------|-----------------|-----------------|
                                                                         |
Guitar 2                                                                 |
PM___________________________________   (a = 10)                         |
e|-----------------|-----------------|/a-a-a-a-a-a-a-a-|-a-a-a-a-a-a-a-a-|
B|-----------------|-----------------|/a-a-a-a-a-a-a-a-|-a-a-a-a-a-a-a-a-|
G|-7-7-7-7-7-7-7-7-|-7-7-7-7-7-7-7-7-|-----------------|-----------------|
D|-7-7-7-7-7-7-7-7-|-7-7-7-7-7-7-7-7-|-----------------|-----------------|
A|-5-5-5-5-5-5-5-5-|-5-5-5-5-5-5-5-5-|-----------------|-----------------|
E|-----------------|-----------------|-----------------|-----------------|

Verse 2
"So I walk into another room"
"And sister pain is with me too"
"Out tongues are anaconda twist"
"'Cause we're holding out for what we missed"
e|-----------------|-----------------|-----------------|-----------------|
B|-----------------|-----------------|-----------------|-----------------|
G|-7---7---4---4---|---------4---4---|-----------------|-----------------| x4
D|-7---7---4---4---|-5---5---4---4-7-|---7-7-7-7-7-7-7-|-7-7-7-7-7-7-7-7-|
A|-5---5---2---2---|-5---5---2---2-7-|---7-7-7-7-7-7-7-|-7-7-7-7-7-7-7-7-|
E|-----------------|-3---3---------5-|---5-5-5-5-5-5-5-|-5-5-5-5-5-5-5-5-|

Pre chorus
"It don't feel right"
"don't taste right"
Guitar 1
e|-----------------|-----------------|-----------------|-----------------|
B|-----------------|-----------------|-----------------|-----------------|
G|-9-9-9-9-9-9-9-9-|-----------------|-----------------|-----------------|
D|-9-9-9-9-9-9-9-9-|-8-8-8-8-8-8-8-8-|-----------------|-----------------|
A|-7-7-7-7-7-7-7-7-|-8-8-8-8-8-8-8-8-|-5-/-8-\-5-/-8-\-|-5-/-8-\-5-/-8-\-|
E|-----------------|-6-6-6-6-6-6-6-6-|-3-/-6-\-3-/-6-\-|-3-/-6-\-3-/-6-\-|
                                                                         |  x2
Guitar 2 Tremlo pick and slide                                           |
e|-3--/----/----/--|-15--------------|-----------------|-----------------|
B|-----------------|-----------------|-----------------|-----------------|
G|-----------------|-----------------|-----------------|-----------------|
D|-----------------|-----------------|-----------------|-----------------|
A|-----------------|-----------------|-5-/-8-\-5-/-8-\-|-5-/-8-\-5-/-8-\-|
E|-----------------|-----------------|-3-/-6-\-3-/-6-\-|-3-/-6-\-3-/-6-\-|

Chorus
"Living in mental blocks"
e|-----------------|-----------------|-----------------|-----------------|
B|-----------------|-----------------|-----------------|-----------------|
G|-5---5---5-5-5-5-|-----------------|-----------------|-----------------|
D|-5---5---5-5-5-5-|-7---7---7-7-7-7-|-3-3-3-3-3-3-3-3-|-3-3-3-3-3-3-3-3-|
A|-3---3---3-3-3-3-|-7---7---7-7-7-7-|-3-3-3-3-3-3-3-3-|-3-3-3-3-3-3-3-3-|
E|-----------------|-5---5---5-5-5-5-|-1-1-1-1-1-1-1-1-|-1-1-1-1-1-1-1-1-|

"This is the concrete nation" (a = 10)
e|-----------------|-----------------|-----------------|-----------------|
B|-----------------|-----------------|-----------------|-----------------|
G|-5---5---5-5-5-5-|-----------------|-a-a-a-a-9-9-9-9-|-----------------|
D|-5---5---5-5-5-5-|-7---7---7-7-7-7-|-a-a-a-a-9-9-9-9-|-a-a-a-a-5-5-5-5-|
A|-3---3---3-3-3-3-|-7---7---7-7-7-7-|-8-8-8-8-7-7-7-7-|-a-a-a-a-5-5-5-5-|
E|-----------------|-5---5---5-5-5-5-|-----------------|-8-8-8-8-3-3-3-3-|

"Don't fuck with our sedation"
e|-----------------|-----------------|-----------------|-----------------|
B|-----------------|-----------------|-----------------|-----------------|
G|-5---5---5-5-5-5-|-----------------|-----------------|-----------------|
D|-5---5---5-5-5-5-|-7---7---7-7-7-7-|-3-3-3-3-3-3-3-3-|-3-3-3-3-3-3-3-3-|
A|-3---3---3-3-3-3-|-7---7---7-7-7-7-|-3-3-3-3-3-3-3-3-|-3-3-3-3-3-3-3-3-|
E|-----------------|-5---5---5-5-5-5-|-1-1-1-1-1-1-1-1-|-1-1-1-1-1-1-1-1-|

"we're alive"
Guitar 1
PM___________________________________       
e|-----------------|-----------------|-----------------|-----------------|
B|-----------------|-----------------|-7-7-7-7-7-7-7-7-|-7-7-7-7-7-7-7-7-|
G|-7-7-7-7-7-7-7-7-|-7-7-7-7-7-7-7-7-|-7-7-7-7-7-7-7-7-|-7-7-7-7-7-7-7-7-|
D|-7-7-7-7-7-7-7-7-|-7-7-7-7-7-7-7-7-|-7-7-7-7-7-7-7-7-|-7-7-7-7-7-7-7-7-|
A|-5-5-5-5-5-5-5-5-|-5-5-5-5-5-5-5-5-|-5-5-5-5-5-5-5-5-|-5-5-5-5-5-5-5-5-|
E|-----------------|-----------------|-----------------|-----------------|
                                                                         |
Guitar 2                                                                 |
PM___________________________________   (a = 10)                         |
e|-----------------|-----------------|/a-a-a-a-a-a-a-a-|-a-a-a-a-a-a-a-a-|
B|-----------------|-----------------|/a-a-a-a-a-a-a-a-|-a-a-a-a-a-a-a-a-|
G|-7-7-7-7-7-7-7-7-|-7-7-7-7-7-7-7-7-|-----------------|-----------------|
D|-7-7-7-7-7-7-7-7-|-7-7-7-7-7-7-7-7-|-----------------|-----------------|
A|-5-5-5-5-5-5-5-5-|-5-5-5-5-5-5-5-5-|-----------------|-----------------|
E|-----------------|-----------------|-----------------|-----------------|


Solo (this aint perfect by any means. blend of live version and ablum)
Guitar 1
e|-----------------|-----------------|-----------------|-----------------|
B|-----------------|-----------------|-----------------|-----------------|
G|-7---7---4---4---|---------4---4---|-----------------|-----------------|
D|-7---7---4---4---|-5---5---4---4-7-|---7-7-7-7-7-7-7-|-7-7-7-7-7-7-7-7-|
A|-5---5---2---2---|-5---5---2---2-7-|---7-7-7-7-7-7-7-|-7-7-7-7-7-7-7-7-|
E|-----------------|-3---3---------5-|---5-5-5-5-5-5-5-|-5-5-5-5-5-5-5-5-|
                                                                         |
Guitar 2 Tremlo picks with added bends here and there                    |
e|-10-----12-------|-13------15------|-----------------|-----------------|
B|-----------------|-----------------|-15--------------|-----------------|
G|-----------------|-----------------|-17b-------------|-----------------|
D|-----------------|-----------------|-----------------|-----------------|
A|-----------------|-----------------|-----------------|-----------------|
E|-----------------|-----------------|-----------------|-----------------|

Guitar 1
e|-----------------|-----------------|-----------------|-----------------|
B|-----------------|-----------------|-----------------|-----------------|
G|-7---7---4---4---|---------4---4---|-----------------|-----------------|
D|-7---7---4---4---|-5---5---4---4-7-|---7-7-7-7-7-7-7-|-7-7-7-7-7-7-7-7-|
A|-5---5---2---2---|-5---5---2---2-7-|---7-7-7-7-7-7-7-|-7-7-7-7-7-7-7-7-|
E|-----------------|-3---3---------5-|---5-5-5-5-5-5-5-|-5-5-5-5-5-5-5-5-|
                                                                         |
Guitar 2 Tremlo picks with added bends here and there (a=10 c=12 d=13    |
e|-----------------|-----------------|----------a-c-a--|-d-d--d---c-d-c--|
B|-----------------|-----------------|-----------------|-----------------|
G|-7-------9-------|-10------12------|-9---------------|-----------------|
D|-----------------|-----------------|-----------------|-----------------|
A|-----------------|-----------------|-----------------|-----------------|
E|-----------------|-----------------|-----------------|-----------------|

Guitar 1
e|-----------------|-----------------|-----------------|-----------------|
B|-----------------|-----------------|-----------------|-----------------|
G|-7---7---4---4---|---------4---4---|-----------------|-----------------|
D|-7---7---4---4---|-5---5---4---4-7-|---7-7-7-7-7-7-7-|-7-7-7-7-7-7-7-7-|
A|-5---5---2---2---|-5---5---2---2-7-|---7-7-7-7-7-7-7-|-7-7-7-7-7-7-7-7-|
E|-----------------|-3---3---------5-|---5-5-5-5-5-5-5-|-5-5-5-5-5-5-5-5-|
                                                                         |
Guitar 2 Tremlo picks with added bends here and there                    |
e|-----------------|-12-----13-------|-----------------|-----------------|
B|-13-----15-------|-----------------|-15--------------|-----------------|
G|-----------------|-----------------|-17b-------------|-----------------|
D|-----------------|-----------------|-----------------|-----------------|
A|-----------------|-----------------|-----------------|-----------------|
E|-----------------|-----------------|-----------------|-----------------|

Guitar 1
e|-----------------|-----------------|-----------------|-----------------|
B|-----------------|-----------------|-----------------|-----------------|
G|-7---7---4---4---|---------4---4---|-----------------|-----------------|
D|-7---7---4---4---|-5---5---4---4-7-|---7-7-7-7-7-7-7-|-7-7-7-7-7-7-7-7-|
A|-5---5---2---2---|-5---5---2---2-7-|---7-7-7-7-7-7-7-|-7-7-7-7-7-7-7-7-|
E|-----------------|-3---3---------5-|---5-5-5-5-5-5-5-|-5-5-5-5-5-5-5-5-|
                                                                         |
Guitar 2 Tremlo picks with added bends here and there                    |
e|-----------------|-----------------|-----------------|-----------------|
B|-----------------|-----------------|-----------------|-----------------|
G|-7-------9-------|-10------12------|-9---------------|-----------------|
D|-----------------|-----------------|-----------------|-----------------|
A|-----------------|-----------------|-----------------|-----------------|
E|-----------------|-----------------|-----------------|-----------------|

e|-----------------|-----------------|-----------------|-----------------|
B|-----------------|-----------------|-----------------|-----------------|
G|-7---7---4---4---|---------4---4---|-----------------|-----------------|
D|-7---7---4---4---|-5---5---4---4-7-|---7-7-7-7-7-7-7-|-7-7-7-7-7-7-7-7-|
A|-5---5---2---2---|-5---5---2---2-7-|---7-7-7-7-7-7-7-|-7-7-7-7-7-7-7-7-|
E|-----------------|-3---3---------5-|---5-5-5-5-5-5-5-|-5-5-5-5-5-5-5-5-|

Pre chorus
"It don't feel right"
"don't taste right"
Guitar 1
e|-----------------|-----------------|-----------------|-----------------|
B|-----------------|-----------------|-----------------|-----------------|
G|-9-9-9-9-9-9-9-9-|-----------------|-----------------|-----------------|
D|-9-9-9-9-9-9-9-9-|-8-8-8-8-8-8-8-8-|-----------------|-----------------|
A|-7-7-7-7-7-7-7-7-|-8-8-8-8-8-8-8-8-|-5-/-8-\-5-/-8-\-|-5-/-8-\-5-/-8-\-|
E|-----------------|-6-6-6-6-6-6-6-6-|-3-/-6-\-3-/-6-\-|-3-/-6-\-3-/-6-\-|
                                                                         |  x2
Guitar 2 Tremlo pick and slide                                           |
e|-3--/----/----/--|-15--------------|-----------------|-----------------|
B|-----------------|-----------------|-----------------|-----------------|
G|-----------------|-----------------|-----------------|-----------------|
D|-----------------|-----------------|-----------------|-----------------|
A|-----------------|-----------------|-5-/-8-\-5-/-8-\-|-5-/-8-\-5-/-8-\-|
E|-----------------|-----------------|-3-/-6-\-3-/-6-\-|-3-/-6-\-3-/-6-\-|

Chorus
"Living in mental blocks"
e|-----------------|-----------------|-----------------|-----------------|
B|-----------------|-----------------|-----------------|-----------------|
G|-5---5---5-5-5-5-|-----------------|-----------------|-----------------|
D|-5---5---5-5-5-5-|-7---7---7-7-7-7-|-3-3-3-3-3-3-3-3-|-3-3-3-3-3-3-3-3-|
A|-3---3---3-3-3-3-|-7---7---7-7-7-7-|-3-3-3-3-3-3-3-3-|-3-3-3-3-3-3-3-3-|
E|-----------------|-5---5---5-5-5-5-|-1-1-1-1-1-1-1-1-|-1-1-1-1-1-1-1-1-|

"This is the concrete nation" (a = 10)
e|-----------------|-----------------|-----------------|-----------------|
B|-----------------|-----------------|-----------------|-----------------|
G|-5---5---5-5-5-5-|-----------------|-a-a-a-a-9-9-9-9-|-----------------|
D|-5---5---5-5-5-5-|-7---7---7-7-7-7-|-a-a-a-a-9-9-9-9-|-a-a-a-a-5-5-5-5-|
A|-3---3---3-3-3-3-|-7---7---7-7-7-7-|-8-8-8-8-7-7-7-7-|-a-a-a-a-5-5-5-5-|
E|-----------------|-5---5---5-5-5-5-|-----------------|-8-8-8-8-3-3-3-3-|

"Don't fuck with our sedation"
e|-----------------|-----------------|-----------------|-----------------|
B|-----------------|-----------------|-----------------|-----------------|
G|-5---5---5-5-5-5-|-----------------|-----------------|-----------------|
D|-5---5---5-5-5-5-|-7---7---7-7-7-7-|-3-3-3-3-3-3-3-3-|-3-3-3-3-3-3-3-3-|
A|-3---3---3-3-3-3-|-7---7---7-7-7-7-|-3-3-3-3-3-3-3-3-|-3-3-3-3-3-3-3-3-|
E|-----------------|-5---5---5-5-5-5-|-1-1-1-1-1-1-1-1-|-1-1-1-1-1-1-1-1-|

"Our sedation, our sedation" (a=10)
PM___________________________________
e|-----------------|-----------------|-----------------|-----------------|
B|-----------------|-----------------|-----------------|-a-a-a-a-a-a-a-a-|
G|-a-a-a-a-a-a-a-a-|-a-a-a-a-a-a-a-a-|-a-a-a-a-a-a-a-a-|-a-a-a-a-a-a-a-a-|
D|-a-a-a-a-a-a-a-a-|-a-a-a-a-a-a-a-a-|-a-a-a-a-a-a-a-a-|-a-a-a-a-a-a-a-a-|
A|-8-8-8-8-8-8-8-8-|-8-8-8-8-8-8-8-8-|-8-8-8-8-8-8-8-8-|-8-8-8-8-8-8-8-8-|
E|-----------------|-----------------|-----------------|-----------------|
__________________________________________________________________________________________________

10. Fit Boy and Faint Girl

Intro Dist and feedback 
"Things we wanted but never seen,       just got back but we never been"
Guitar 1 Dist and feedback 
e|-----------------|-----------------|-----------------|-----------------|
B|-----------------|-----------------|-----------------|-----------------|
G|-----------------|/9---------------|-----------------|/9---------------|
D|-5---------------|-----------------|\5---------------|-----------------|
A|-----------------|-----------------|-----------------|-----------------|
E|-----------------|-----------------|-----------------|-----------------|


"Only home when in pictures running in my head" 
"Cos I don't believe in nothing, speak the truth instead"
Guitar 1 Hold heedback on this note 
e|-----------------|-----------------|-----------------|-----------------|
B|--8--------------|-(8)-------------|-(8)-------------|-(8)-------------|
G|-----------------|-----------------|-----------------|-----------------|
D|-----------------|-----------------|-----------------|-----------------|
A|-----------------|-----------------|-----------------|-----------------|
E|-----------------|-----------------|-----------------|-----------------|
                                                                         |
Guitar 2 Clean PM________________________________________________________|
e|-----------------|-----------------|-----------------|-----------------|
B|-----------------|-----------------|-----------------|-----------------|
G|-----------------|-----------------|-----------------|-----------------|
D|-5-5-5-5---------|-----------------|-5-5-5-5---------|-----------------|
A|-3-3-3-3-2-2-2-2-|-5-5-5-7-7-7-7-7-|-3-3-3-3-2-2-2-2-|-5-5-5-5-5-5-5-5-|
E|---------0-0-0-0-|-3-3-3-5-5-5-5-5-|---------0-0-0-0-|-3-3-3-3-3-3-3-3-|


"They'll be running round in circles, overrating the world"
"I'll be dreaming about the fit boy and faint girl"
Guitar 1 Hold heedback on this note 
e|-----------------|-----------------|-----------------|-----------------|
B|--8--------------|-(8)-------------|-(8)-------------|-----------------|
G|-----------------|-----------------|-----------------|-----------------|
D|-----------------|-----------------|-----------------|-----------------|
A|-----------------|-----------------|-----------------|-----------------|
E|-----------------|-----------------|-----------------|-----------------|
                                                                         |
Guitar 2 Clean PM______________________________________                  |
e|-----------------|-----------------|-----------------|-----------------|
B|-----------------|-----------------|-----------------|-3---------------|
G|-----------------|-----------------|-----------------|-2---------------|
D|-5-5-5-5---------|-----------------|-5-5-5-5-5-5-5-5-|-0---------------|
A|-3-3-3-3-2-2-2-2-|-5-5-5-7-7-7-7-7-|-3-3-3-3-3-3-3-3-|-----------------|
E|---------0-0-0-0-|-3-3-3-5-5-5-5-5-|-----------------|-----------------|

"Cold in the summer"
Guitar 1 dist
e|-----------------|-----------------|-----------------|-----------------|
B|-----------------|-----------------|-----------------|-----------------|
G|-----------------|-----------------|-----------------|-----------------|
D|-----------------|-----------------|-----------------|-----------------|
A|-----------------|-----------------|-----------------|-----------------|
E|-----------------|-----------------|-----------------|-----------------|
                                                                         |
Guitar 2 clean PM________________________________________________________|
e|-----------------|-----------------|-----------------|-----------------|
B|-----------------|-----------------|-----------------|-----------------|
G|-----------------|-----------------|-----------------|-----------------|
D|-----------------|-----------------|-----------------|-----------------|
A|-5---5---5---5---|-5-5-5---5---5---|-5---5---5---5---|-5-5-5---5---5---|
E|-3---3---3---3---|-3-3-3---3---3---|-3---3---3---3---|-3-3-3---3---3---|

"burned by your freeze"
Guitar 1 dist                         vol swell
e|-----------------|-----------------|-----------------|-----------------|
B|-----------------|-----------------|-----------------|-----------------|
G|-----------------|-----------------|-9---------------|-----------5-5-5-|
D|-----------------|-----------------|-----------------|-----------5-5-5-|
A|-----------------|-----------------|-----------------|-----------3-3-3-|
E|-----------------|-----------------|-----------------|-----------------|
                                                                         |
Guitar 2 Clean PM_________________________________________________       |
e|-----------------|-----------------|-----------------|-----------------|
B|-----------------|-----------------|-----------------|-----------------|
G|-----------------|-----------------|-----------------|-----------5-5-5-|
D|-----------------|-----------------|-----------------|-----------5-5-5-|
A|-2---2---2---2---|-2-2-2---2---2---|-2---2---2---2---|-2-2-2---2-3-3-3-|
E|-0---0---0---0---|-0-0-0---0---0---|-0---0---0---0---|-0-0-0---0-------|

"Old newcomer"
Guitar 1 Dist and feedback 
e|-----------------|-----------------|-----------------|-----------------|
B|-----------------|-----------------|-----------------|-----------------|
G|-----------------|-----------------|-----------------|-----------------|
D|-5---------------|-(5)-------------|-(5)-------------|-(5)-------------|
A|-----------------|-----------------|-----------------|-----------------|
E|-----------------|-----------------|-----------------|-----------------|
                                                                         |
Guitar 2 Clean PM________________________________________________________|
e|-----------------|-----------------|-----------------|-----------------|
B|-----------------|-----------------|-----------------|-----------------|
G|-----------------|-----------------|-----------------|-----------------|
D|-----------------|-----------------|-----------------|-----------------|
A|-5---5---5---5---|-5-5-5---5---5---|-5---5---5---5---|-5-5-5---5---5---|
E|-3---3---3---3---|-3-3-3---3---3---|-3---3---3---3---|-3-3-3---3---3---|

"born to say please"
Guitar 1 dist and feedback                     
e|-----------------|-----------------|-----------------|-----------------|
B|-----------------|-----------------|-----------------|-----------------|
G|-9---------------|-(9)-------------|-(9)-------------|-(9)-------5-5-5-|
D|-----------------|-----------------|-----------------|-----------5-5-5-|
A|-----------------|-----------------|-----------------|-----------3-3-3-|
E|-----------------|-----------------|-----------------|-----------------|
                                                                         |
Guitar 2 Clean PM_________________________________________________       |
e|-----------------|-----------------|-----------------|-----------------|
B|-----------------|-----------------|-----------------|-----------------|
G|-----------------|-----------------|-----------------|-----------5-5-5-|
D|-----------------|-----------------|-----------------|-----------5-5-5-|
A|-2---2---2---2---|-2-2-2---2---2---|-2---2---2---2---|-2-2-2---2-3-3-3-|
E|-0---0---0---0---|-0-0-0---0---0---|-0---0---0---0---|-0-0-0---0-------|

"Only home when in pictures running in my head" 
"Cos I don't believe in nothing, speak the truth instead"
Guitar 1 Hold heedback on this note 
e|-----------------|-----------------|-----------------|-----------------|
B|--8--------------|-(8)-------------|-(8)-------------|-(8)-------------|
G|-----------------|-----------------|-----------------|-----------------|
D|-----------------|-----------------|-----------------|-----------------|
A|-----------------|-----------------|-----------------|-----------------|
E|-----------------|-----------------|-----------------|-----------------|
                                                                         |
Guitar 2 light dist PM___________________________________________________|
e|-----------------|-----------------|-----------------|-----------------|
B|-----------------|-----------------|-----------------|-----------------|
G|-----------------|-----------------|-----------------|-----------------|
D|-5-5-5-5---------|-----------------|-5-5-5-5---------|-----------------|
A|-3-3-3-3-2-2-2-2-|-5-5-5-7-7-7-7-7-|-3-3-3-3-2-2-2-2-|-5-5-5-5-5-5-5-5-|
E|---------0-0-0-0-|-3-3-3-5-5-5-5-5-|---------0-0-0-0-|-3-3-3-3-3-3-3-3-|


"They'll be running round in circles, overrating the world"
"I'll be dreaming about the fit boy and faint girl"
Guitar 1 Hold heedback on this note 
e|-----------------|-----------------|-----------------|-----------------|
B|--8--------------|-(8)-------------|-(8)-------------|-----------------|
G|-----------------|-----------------|-----------------|-----------------|
D|-----------------|-----------------|-----------------|-----------------|
A|-----------------|-----------------|-----------------|-----------------|
E|-----------------|-----------------|-----------------|-----------------|
                                                                         |
Guitar 2 light dist PM__________________________________                 |
e|-----------------|-----------------|-----------------|-----------------|
B|-----------------|-----------------|-----------------|-3---------------|
G|-----------------|-----------------|-----------------|-2---------------|
D|-5-5-5-5---------|-----------------|-5-5-5-5-5-5-5-5-|-0---------------|
A|-3-3-3-3-2-2-2-2-|-5-5-5-7-7-7-7-7-|-3-3-3-3-3-3-3-3-|-----------------|
E|---------0-0-0-0-|-3-3-3-5-5-5-5-5-|-----------------|-----------------|

Both Light dist
e|-3---3-----------|-----------------|-3---3-----------|-----------------|
B|-3---3-----------|-----------------|-3---3-----------|-----------------|
G|-0---0-----------|-----------------|-0---0-----------|-----------------|
D|-2---0-----------|-------0---------|-2---0-----------|-----------------|
A|-3---2-----------|-2-3-2-----0---3-|-3---2-----------|-2-0-------0-2---|
E|-----3-----------|-------------3---|-----3-----------|-----3-3-------3-|

                                                        Heavy dist on here*
e|-3---3-----------|-----------------|-3---3-----------|-----------------|
B|-3---3-----------|-----------------|-3---3-----------|-----------------|
G|-0---0-----------|-----------------|-0---0-----------|-----------------|
D|-2---0-----------|-------0---------|-2---0-----------|-----------------|
A|-3---2-----------|-2-3-2-----0---3-|-3---2-----------|-2-0-------*-----|
E|-----3-----------|-------------3---|-----3-----------|-----3-----0-3-0-|

"Don't try to tell her that it's alright, There's clouds in her mind"
e|-----------------|-----------------|-3---3-3-3-3-3-3-|-----------------|
B|-----------------|-----------------|-3---3-3-3-3-3-3-|-3---3-3---------|
G|-4---4-4-4-4-4-4-|-4-4-4-4---------|-0---0-0-0-0-0-0-|-2---2-2---------|
D|-4---4-4-4-4-4-4-|-4-4-4-4---------|-0---0-0-0-0-0-0-|-0---0-0---------|
A|-2---2-2-2-2-2-2-|-2-2-2-2---------|-2---2-2-2-2-2-2-|-----------------|
E|-----------------|----------0-3-0--|-3---3-3-3-3-3-3-|----------0-3-0--|

"There could be time before the lights out, And I may just find"
e|-----------------|-----------------|-3---3-3-3-3-3-3-|-----------------|
B|-----------------|-----------------|-3---3-3-3-3-3-3-|-3-3-3-3-3-------|
G|-4---4-4-4-4-4-4-|-4-4-4-4---------|-0---0-0-0-0-0-0-|-2-2-2-2-2-------|
D|-4---4-4-4-4-4-4-|-4-4-4-4---------|-0---0-0-0-0-0-0-|-0-0-0-0-0--5--4-|
A|-2---2-2-2-2-2-2-|-2-2-2-2---------|-2---2-2-2-2-2-2-|------------3--2-|
E|-----------------|----------0-3-0--|-3---3-3-3-3-3-3-|-----------------|

"That if she's alright, I'll be alright"
e|-0---0-0-0-0-0-0-|-0---0-0-0-0-0-0-|
B|-2---2-2-2-2-2-2-|-1---1-1-1-1-1-1-|
G|-2---2-2-2-2-2-2-|-0---0-0-0-0-0-0-|
D|-2---2-2-2-2-2-2-|-2---2-2-2-2-2-2-|
A|-0---0-0-0-0-0-0-|-3---3-3-3-3-3-3-|
E|-----------------|-----------------|

e|-3---3-----------|-----------------|-3---3-----------|-----------------|
B|-3---3-----------|-----------------|-3---3-----------|-----------------|
G|-0---0-----------|-----------------|-0---0-----------|-----------------|
D|-2---0-----------|-------0---------|-2---0-----------|-----------------|
A|-3---2-----------|-2-3-2-----0---3-|-3---2-----------|-2-0-------0-2---|
E|-----3-----------|-------------3---|-----3-----------|-----3-3-------3-|

                                                        
e|-3---3-----------|-----------------|-3---3-----------|-----3-----------|
B|-3---3-----------|-----------------|-3---3-----------|-----3-----------|
G|-0---0-----------|-----------------|-0---0-----------|-----0-----------|
D|-2---0-----------|-------0---------|-2---0-----------|-----0-----------|
A|-3---2-----------|-2-3-2-----0---3-|-3---2-----------|-2-0-2-----------|
E|-----3-----------|-------------3---|-----3-----------|-----3-----------|

"Burned up in winter" 
Guitar 1 
e|-3---3---3---3---|-3-3-3---3---3---|-3---3---3---3---|-----------------|
B|-3---3---3---3---|-3-3-3---3---3---|-3---3---3---3---|-0---1---0-------|
G|-0---0---0---0---|-0-0-0---0---0---|-0---0---0---0---|-------------0---|
D|-0---0---0---0---|-0-0-0---0---0---|-0---0---0---0---|-----------------|
A|-2---2---2---2---|-2-2-2---2---2---|-2---2---2---2---|-----------------|
E|-3---3---3---3---|-3-3-3---3---3---|-3---3---3---3---|-----------------|
                                                                         |
Guitar 2                                                                 |
e|-----------------|-----------------|-----------------|-----------------|
B|-----------------|-----------------|-----------------|-----------------|
G|-4---4---4---4---|-4-4-4---4---4---|-4---4---4---4---|-4-4-4---4---4---|
D|-5---5---5---5---|-5-5-5---5---5---|-5---5---5---5---|-5-5-5---5---5---|
A|-5---5---5---5---|-5-5-5---5---5---|-5---5---5---5---|-5-5-5---5---5---|
E|-3---3---3---3---|-3-3-3---3---3---|-3---3---3---3---|-3-3-3---3---3---|

"cold in the sun"
Guitar 1                       
e|-0---0---0---0---|-0-0-0---0---0---|-0---0---0---0---|-0-0-0---0-0-0-0-|
B|-0---0---0---0---|-0-0-0---0---0---|-0---0---0---0---|-0-0-0---0-1-1-1-|
G|-1---1---1---1---|-1-1-1---1---1---|-1---1---1---1---|-1-1-1---1-0-0-0-|
D|-2---2---2---2---|-2-2-2---2---2---|-2---2---2---2---|-2-2-2---2-2-2-2-|
A|-2---2---2---2---|-2-2-2---2---2---|-2---2---2---2---|-2-2-2---2-3-3-3-|
E|-0---0---0---0---|-0-0-0---0---0---|-0---0---0---0---|-0-0-0---0-------|
                                                                         |
Guitar 2                                                                 |
e|-0---0---0---0---|-0-0-0---0---0---|-0---0---0---0---|-0-0-0---0-------|
B|-0---0---0---0---|-0-0-0---0---0---|-0---0---0---0---|-0-0-0---0-------|
G|-1---1---1---1---|-1-1-1---1---1---|-1---1---1---1---|-1-1-1---1-5-5-5-|
D|-2---2---2---2---|-2-2-2---2---2---|-2---2---2---2---|-2-2-2---2-5-5-5-|
A|-2---2---2---2---|-2-2-2---2---2---|-2---2---2---2---|-2-2-2---2-3-3-3-|
E|-0---0---0---0---|-0-0-0---0---0---|-0---0---0---0---|-0-0-0---0-------|

"Brand new acquaintance"
Guitar 1 
e|-3---3---3---3---|-3-3-3---3---3---|-3---3---3---3---|-----------------|
B|-3---3---3---3---|-3-3-3---3---3---|-3---3---3---3---|-0---1---0-------|
G|-0---0---0---0---|-0-0-0---0---0---|-0---0---0---0---|-------------0---|
D|-0---0---0---0---|-0-0-0---0---0---|-0---0---0---0---|-----------------|
A|-2---2---2---2---|-2-2-2---2---2---|-2---2---2---2---|-----------------|
E|-3---3---3---3---|-3-3-3---3---3---|-3---3---3---3---|-----------------|
                                                                         |
Guitar 2                                                                 |
e|-----------------|-----------------|-----------------|-----------------|
B|-----------------|-----------------|-----------------|-----------------|
G|-4---4---4---4---|-4-4-4---4---4---|-4---4---4---4---|-4-4-4---4---4---|
D|-5---5---5---5---|-5-5-5---5---5---|-5---5---5---5---|-5-5-5---5---5---|
A|-5---5---5---5---|-5-5-5---5---5---|-5---5---5---5---|-5-5-5---5---5---|
E|-3---3---3---3---|-3-3-3---3---3---|-3---3---3---3---|-3-3-3---3---3---|

"who knows no one"
Guitar 1                       
e|-0---0---0---0---|-0-0-0---0---0---|-0---0---0---0---|-0-0-0---0-0-0-0-|
B|-0---0---0---0---|-0-0-0---0---0---|-0---0---0---0---|-0-0-0---0-1-1-1-|
G|-1---1---1---1---|-1-1-1---1---1---|-1---1---1---1---|-1-1-1---1-0-0-0-|
D|-2---2---2---2---|-2-2-2---2---2---|-2---2---2---2---|-2-2-2---2-2-2-2-|
A|-2---2---2---2---|-2-2-2---2---2---|-2---2---2---2---|-2-2-2---2-3-3-3-|
E|-0---0---0---0---|-0-0-0---0---0---|-0---0---0---0---|-0-0-0---0-------|
                                                                         |
Guitar 2                                                                 |
e|-0---0---0---0---|-0-0-0---0---0---|-0---0---0---0---|-0-0-0---0-------|
B|-0---0---0---0---|-0-0-0---0---0---|-0---0---0---0---|-0-0-0---0-------|
G|-1---1---1---1---|-1-1-1---1---1---|-1---1---1---1---|-1-1-1---1-5-5-5-|
D|-2---2---2---2---|-2-2-2---2---2---|-2---2---2---2---|-2-2-2---2-5-5-5-|
A|-2---2---2---2---|-2-2-2---2---2---|-2---2---2---2---|-2-2-2---2-3-3-3-|
E|-0---0---0---0---|-0-0-0---0---0---|-0---0---0---0---|-0-0-0---0-------|


"Only home when in pictures running in my head" 
"Cos I don't believe in nothing, speak the truth instead"
e|-----------------|-----------------|-----------------|-----------------|
B|-----------------|-----------------|-----------------|-----------------|
G|-5-5-5-5---------|-----------------|-5-5-5-5---------|-----------------|
D|-5-5-5-5-2-2-2-2-|-5-5-5-7-7-7-7-7-|-5-5-5-5-2-2-2-2-|-5-5-5-5-5-5-5-5-|
A|-3-3-3-3-2-2-2-2-|-5-5-5-7-7-7-7-7-|-3-3-3-3-2-2-2-2-|-5-5-5-5-5-5-5-5-|
E|---------0-0-0-0-|-3-3-3-5-5-5-5-5-|---------0-0-0-0-|-3-3-3-3-3-3-3-3-|

"They'll be running round in circles, overrating the world"
"I'll be dreaming about the fit boy and faint girl"
                                                        Clean
e|-----------------|-----------------|-0---------------|-2---------------|
B|-----------------|-----------------|-1---------------|-3---------------|
G|-5-5-5-5---------|-----------------|-0---------------|-2---------------|
D|-5-5-5-5-2-2-2-2-|-5-5-5-7-7-7-7-7-|-2---------------|-0---------------|
A|-3-3-3-3-2-2-2-2-|-5-5-5-7-7-7-7-7-|-3---------------|-----------------|
E|---------0-0-0-0-|-3-3-3-5-5-5-5-5-|-----------------|-----------------|


Outro repeat and fade out
Guitar 1
e|-----------------|-----------------|-----------------|-----------------|
B|-8p7-----8p7-----|-8p7-----8p7-----|-8p7-----8p7-----|-8p7-----8p7-----|
G|-----7-------7---|-----7-------7---|-----7-------7---|-----7-------7---|
D|-----------------|-----------------|-----------------|-----------------|
A|-----------------|-----------------|-----------------|-----------------|
E|-----------------|-----------------|-----------------|-----------------|
                                                                         |
Guitar 2                                                                 |
e|-3-------3-------|-----------------|-3-------3-------|-----------------|
B|-3-------3-------|-----------------|-3-------3-------|-----------------|
G|-0-------0-------|-----------------|-0-------0-------|-----------------|
D|-2-------0-------|-----------------|-2-------0-------|-----------------|
A|-3-------2-------|-----------------|-3-------2-------|-----------------|
E|---------3-------|-----------------|---------3-------|-----------------|
__________________________________________________________________________________________________

11. Halfway up the Downs

Notes with . are played for half note duration. Listen to song to see what I mean

Intro chorus 1
"Halfway up the downs,                    I want to kill the clowns"
Guitar 1
e|--------------------------------------|--------------------------------------|
B|--------------------------------------|--------------------------------------|
G|--------------------------------------|--------------------------------------|
D|-2----2----5--7--8--8-8--5---5--5--5--|-2----2----5--7--8--8-8--5---5--5--5--|
A|-2----2----5--7--8--8-8--5---5--5--5--|-2----2----5--7--8--8-8--5---5--5--5--|
E|-0----0----3--5--6--6-6--3---3--3--3--|-0----0----3--5--6--6-6--3---3--3--3--|
                                                                               |
Guitar 2                                                                       |
e|--------------------------------------|--------------------------------------|
B|----------------------------8-8---8-8-|----------------------------8-8---8-8-|
G|----------------------------6-6---6-6-|----------------------------6-6---6-6-|
D|----------------------------5-5---5-5-|----------------------------5-5---5-5-|
A|-2----2----5--7--8--8-8--5------------|-2----2----5--7--8--8-8--5------------|
E|-0----0----3--5--6--6-6--3------------|-0----0----3--5--6--6-6--3------------|

"They're laughing, laughing loud,        Halfway up the downs"
Guitar 1
e|--------------------------------------|--------------------------------------|
B|--------------------------------------|--------------------------------------|
G|--------------------------------------|--------------------------------------|
D|-2----2----5--7--8--8-8--5---5--5--5--|-2----2----5--7--8--8-8--5---5--5--5--|
A|-2----2----5--7--8--8-8--5---5--5--5--|-2----2----5--7--8--8-8--5---5--5--5--|
E|-0----0----3--5--6--6-6--3---3--3--3--|-0----0----3--5--6--6-6--3---3--3--3--|
                                                                               |
Guitar 2                                                                       |
e|--------------------------------------|--------------------------------------|
B|----------------------------8-8---8-8-|----------------------------8-8---8-8-|
G|----------------------------6-6---6-6-|----------------------------6-6---6-6-|
D|----------------------------5-5---5-5-|----------------------------5-5---5-5-|
A|-2----2----5--7--8--8-8--5------------|-2----2----5--7--8--8-8--5------------|
E|-0----0----3--5--6--6-6--3------------|-0----0----3--5--6--6-6--3------------|

Verse 1
"Halfway to somewhere" "Halfway to nowhere"
"I try to give care" "How can you play fair?"
Bass
G|------------------------|------------------------|
D|------------------------|------------------------|
A|------------------------|------------------------|
E|-0.--0.--0.--0.--0.--0.-|-6.--6.--3.--3.--3.--3.-|
                                                   | x4
Guitar                                             |
e|------------------------|------------------------|
B|------------------------|-------------8-8---8-8--|
G|------------------------|-------------6-6---6-6--|
D|------------------------|-------------5-5---5-5--|
A|------------------------|------------------------|
E|------------------------|------------------------|

Chorus 2
"Halfway up the downs,                    I want to kill the clowns"
Guitar 1
e|--------------------------------------|--------------------------------------|
B|--------------------------------------|--------------------------------------|
G|--------------------------------------|--------------------------------------|
D|-2----2----5--7--8--8-8--5---5--5--5--|-2----2----5--7--8--8-8--5---5--5--5--|
A|-2----2----5--7--8--8-8--5---5--5--5--|-2----2----5--7--8--8-8--5---5--5--5--|
E|-0----0----3--5--6--6-6--3---3--3--3--|-0----0----3--5--6--6-6--3---3--3--3--|
                                                                               |
Guitar 2                                                                       |
e|--------------------------------------|--------------------------------------|
B|----------------------------8-8---8-8-|----------------------------8-8---8-8-|
G|----------------------------6-6---6-6-|----------------------------6-6---6-6-|
D|----------------------------5-5---5-5-|----------------------------5-5---5-5-|
A|-2----2----5--7--8--8-8--5------------|-2----2----5--7--8--8-8--5------------|
E|-0----0----3--5--6--6-6--3------------|-0----0----3--5--6--6-6--3------------|

"They're laughing, laughing loud,        Halfway up the downs"
Guitar 1
e|--------------------------------------|--------------------------------------|
B|--------------------------------------|--------------------------------------|
G|--------------------------------------|--------------------------------------|
D|-2----2----5--7--8--8-8--5---5--5--5--|-2----2----5--7--8--8-8--5---5--5--5--|
A|-2----2----5--7--8--8-8--5---5--5--5--|-2----2----5--7--8--8-8--5---5--5--5--|
E|-0----0----3--5--6--6-6--3---3--3--3--|-0----0----3--5--6--6-6--3---3--3--3--|
                                                                               |
Guitar 2                                                                       |
e|--------------------------------------|--------------------------------------|
B|----------------------------8-8---8-8-|----------------------------8-8---8-8-|
G|----------------------------6-6---6-6-|----------------------------6-6---6-6-|
D|----------------------------5-5---5-5-|----------------------------5-5---5-5-|
A|-2----2----5--7--8--8-8--5------------|-2----2----5--7--8--8-8--5------------|
E|-0----0----3--5--6--6-6--3------------|-0----0----3--5--6--6-6--3------------|

Break 1
e|-----------------|-----------------|-----------------|-----------------|
B|-3-----------3-2-|-1-----------3-2-|-1-----------3-2-|-1-----------3-2-|
G|-------0---------|-------0---------|-------0---------|-------0---------|
D|----0-----0------|----0-----0------|----0-----0------|----0-----0------|
A|-----------------|-----------------|-----------------|-----------------|
E|-----------------|-----------------|-----------------|-----------------|

Verse 2
"Where are you going?" "Would you try for me?"
"What are you knowing?" "What have you seen?"
Bass
G|------------------------|------------------------|
D|------------------------|------------------------|
A|------------------------|------------------------|
E|-0.--0.--0.--0.--0.--0.-|-6.--6.--3.--3.--3.--3.-|
                                                   | x4
Guitar                                             |
e|------------------------|------------------------|
B|------------------------|-------------8-8---8-8--|
G|------------------------|-------------6-6---6-6--|
D|------------------------|-------------5-5---5-5--|
A|------------------------|------------------------|
E|------------------------|------------------------|

Break 2
e|-----------------|-----------------|-----------------|-----------------|
B|-3-----------3-2-|-1-----------3-2-|-1-----------3-2-|-1-----------3-2-|
G|-------0---------|-------0---------|-------0---------|-------0---------|
D|----0-----0------|----0-----0------|----0-----0------|----0-----0------|
A|-----------------|-----------------|-----------------|-----------------|
E|-----------------|-----------------|-----------------|-----------------|

e|-----------------|-----------------|-----------------|-----------------|
B|-1-----------3-2-|-1-----------3-2-|-1-----------3-2-|-1-----------3-2-|
G|-------0---------|-------0---------|-------0---------|-------0---------|
D|----0-----0------|----0-----0------|----0-----0------|----0-----0------|
A|-----------------|-----------------|-----------------|-----------------|
E|-----------------|-----------------|-----------------|-----------------|

Chorus 3
"Halfway up the downs,                    I want to kill the clowns"
Guitar 1                                                             PM________
e|--------------------------------------|--------------------------------------|
B|--------------------------------------|--------------------------------------|
G|--------------------------------------|--------------------------------------|
D|-2----2----5--7--8--8-8--5---5--5--5--|-2----2----5--7--8--8-8--5---5-5-5-5--|
A|-2----2----5--7--8--8-8--5---5--5--5--|-2----2----5--7--8--8-8--5---5-5-5-5--|
E|-0----0----3--5--6--6-6--3---3--3--3--|-0----0----3--5--6--6-6--3---3-3-3-3--|
                                                                               |
Guitar 2                                                                       |
e|--------------------------------------|--------------------------------------|
B|----------------------------8-8---8-8-|----------------------------8-x---x-x-|
G|----------------------------6-6---6-6-|----------------------------6-x---x-x-|
D|----------------------------5-5---5-5-|----------------------------5-x---x-x-|
A|-2----2----5--7--8--8-8--5------------|-2----2----5--7--8--8-8--5------------|
E|-0----0----3--5--6--6-6--3------------|-0----0----3--5--6--6-6--3------------|

"They're laughing, laughing loud,        Halfway up the downs"
Guitar 1
e|--------------------------------------|--------------------------------------|
B|--------------------------------------|--------------------------------------|
G|--------------------------------------|--------------------------------------|
D|-2----2----5--7--8--8-8--5---5--5--5--|-2----2----5--7--8--8-8--5----7---8---|
A|-2----2----5--7--8--8-8--5---5--5--5--|-2----2----5--7--8--8-8--5----7---8---|
E|-0----0----3--5--6--6-6--3---3--3--3--|-0----0----3--5--6--6-6--3----5---6---|
                                                                               |
Guitar 2                                                                       |
e|--------------------------------------|--------------------------------------|
B|----------------------------8-8---8-8-|--------------------------------------|
G|----------------------------6-6---6-6-|--------------------------------------|
D|----------------------------5-5---5-5-|--------------------------------------|
A|-2----2----5--7--8--8-8--5------------|-2----2----5--7--8--8-8--5----7---8---|
E|-0----0----3--5--6--6-6--3------------|-0----0----3--5--6--6-6--3----5---6---|

Bridge
"Who fucking cares?                   Don't say you care"
e|-----------------|-----------------|-----------------|-----------------|
B|-----------------|-----------------|-----------------|-----------------|
G|-----------------|-----------------|-----------------|-----------------|
D|-2---------------|-8-------5-------|-2---------------|-8-------5-------|
A|-2---------------|-8-------5-------|-2---------------|-8-------5-------|
E|-0---------------|-6-------3-------|-0---------------|-6-------3-------|

"Don't say you care,                 I know just where you're coming from"
e|-----------------|-----------------|-----------------|-----------------|
B|-----------------|-----------------|-----------------|-----------------|
G|-----------------|-----------------|-----------------|-----------------|
D|-2---------------|-8-------5-------|-2---------------|-8-------5-------|
A|-2---------------|-8-------5-------|-2---------------|-8-------5-------|
E|-0---------------|-6-------3-------|-0---------------|-6-------3-------|

"Just where you're coming from" (Bass only)
G|------------------------|------------------------|
D|------------------------|------------------------|
A|------------------------|------------------------|
E|-0.--0.--0.--0.--0.--0.-|-0.--0.--0.--0.--0.--0.-|

Outro
"And you've got to have money           New religion is money"
e|-----------------|-----------------|-----------------|-----------------|
B|-3-----------3-2-|-1-----------3-2-|-1-----------3-2-|-1-----------3-2-|
G|-------0---------|-------0---------|-------0---------|-------0---------|
D|----0-----0------|----0-----0------|----0-----0------|----0-----0------|
A|-----------------|-----------------|-----------------|-----------------|
E|-----------------|-----------------|-----------------|-----------------|

"New religion is money                                  Half way up the"
e|-----------------|-----------------|-----------------|-----------------|
B|-1-----------3-2-|-1-----------3-2-|-1-----------3-2-|-----------------|
G|-------0---------|-------0---------|-------0---------|-7---7---7---7---|
D|----0-----0------|----0-----0------|----0-----0------|-7---7---7---7---|
A|-----------------|-----------------|-----------------|-5---5---5---5---|
E|-----------------|-----------------|-----------------|-----------------|

"downs"
e|-----------------|
B|-----------------|
G|-9---------------|
D|-9---------------|
A|-7---------------|
E|-0---------------|
__________________________________________________________________________________________________

12. Hateslick

Intro a=10
Guitar 1
G|--------------------|------------------|------------------|
e|--------------------|------------------|------------------|
B|--------------------|------------------|------------------|
D|-7----5/7----5/7----|-a-a-a-9-7----5/7-|-5/7----a-a-a-9-7-|
A|-7----5/7----5/7----|-a-a-a-9-7----5/7-|-5/7----a-a-a-9-7-|
E|-5----3/5----3/5----|-8-8-8-7-5----3/5-|-3/5----8-8-8-7-5-|
                                                            |
Guitar 2                                                    |
G|--------------------|------------------|------------------|
e|--------------------|------------------|------------------|
B|--------------------|------------------|------------------|
D|-7-xx-5/7-xx-5/7-xx-|-a-a-a-9-7-xx-5/7-|-5/7-xx-a-a-a-9-7-|
A|-7-xx-5/7-xx-5/7-xx-|-a-a-a-9-7-xx-5/7-|-5/7-xx-a-a-a-9-7-|
E|-5-xx-3/5-xx-3/5-xx-|-8-8-8-7-5-xx-3/5-|-3/5-xx-8-8-8-7-5-|

Guitar 1
e|--------------------|-------------------|----------------|
B|--------------------|-------------------|----------------|
G|--------------------|-------------------|--------9-9b9-9-|
D|----5/7----5/7----a-|-a-a-9-7----5/7----|-5/7------------|
A|----5/7----5/7----a-|-a-a-9-7----5/7----|-5/7----7-7b7-7-|
E|----3/5----3/5----8-|-8-8-7-5----3/5----|-3/5------------|
                                                           |
Guitar 2                                                   |
e|--------------------|-------------------|----------------|
B|--------------------|-------------------|----------------|
G|--------------------|-------------------|----------------|
D|-xx-5/7-xx-5/7-xx-a-|-a-a-9-7-xx-5/7-xx-|-5/7-xx-a-a-a-9-|
A|-xx-5/7-xx-5/7-xx-a-|-a-a-9-7-xx-5/7-xx-|-5/7-xx-a-a-a-9-|
E|-xx-3/5-xx-3/5-xx-8-|-8-8-7-5-xx-3/5-xx-|-3/5-xx-8-8-8-7-|

Verse 1
"Love hate, hate love, which side now, You look like heart burn"
G|--------------------|------------------|-----------------|
e|--------------------|------------------|-----------------|
B|--------------------|------------------|--------9-9b-9-9-|
D|-7----5/7----5/7----|-a-a-a-9-7----5/7-|-5/7-------------|
A|-7----5/7----5/7----|-a-a-a-9-7----5/7-|-5/7----7-7b-7-7-|
E|-5----3/5----3/5----|-8-8-8-7-5----3/5-|-3/5-------------|

"Pray still my dear agnostic, Despise what you learned"
e|--------------------|-------------------|----------------|
B|--------------------|-------------------|----------------|
G|--------------------|-------------------|----------------|
D|----5/7----5/7----a-|-a-a-9-7----5/7----|-5/7----a-a-a-9-|
A|----5/7----5/7----a-|-a-a-9-7----5/7----|-5/7----a-a-a-9-|
E|----3/5----3/5----8-|-8-8-7-5----3/5----|-3/5----8-8-8-7-|

Chorus 1
"Hateslick, core is rotten,           Hateslick, long forgotten"
e|-----------------|-----------------|-----------------|-----------------|
B|-----------------|-----------------|-----------------|-----------------|
G|-----------------|-----------------|-----------------|-----------------|
D|-7-7-7-7-7-7-7-7-|-7-7-7-7-7-a-a-9-|-7-7-7-7-7-7-7-7-|-7-7-7---a--a--9-|
A|-7-7-7-7-7-7-7-7-|-7-7-7-7-7-a-a-9-|-7-7-7-7-7-7-7-7-|-7-7-7---a--a--9-|
E|-5-5-5-5-5-5-5-5-|-5-5-5-5-5-8-8-7-|-5-5-5-5-5-5-5-5-|-5-5-5---8--8--7-|

Verse 2
"I'd die to make the right sounds, You look so far away"
G|--------------------|------------------|-----------------|
e|--------------------|------------------|-----------------|
B|--------------------|------------------|--------9-9b-9-9-|
D|-7----5/7----5/7----|-a-a-a-9-7----5/7-|-5/7-------------|
A|-7----5/7----5/7----|-a-a-a-9-7----5/7-|-5/7----7-7b-7-7-|
E|-5----3/5----3/5----|-8-8-8-7-5----3/5-|-3/5-------------|

"You're talking like a someone, Yet you got nothin' to say"
e|--------------------|-------------------|----------------|
B|--------------------|-------------------|----------------|
G|--------------------|-------------------|----------------|
D|----5/7----5/7----a-|-a-a-9-7----5/7----|-5/7----a-a-a-9-|
A|----5/7----5/7----a-|-a-a-9-7----5/7----|-5/7----a-a-a-9-|
E|----3/5----3/5----8-|-8-8-7-5----3/5----|-3/5----8-8-8-7-|

Chorus 2
"Hateslick, core is rotten,           Hateslick, long forgotten"
e|-----------------|-----------------|-----------------|-----------------|
B|-----------------|-----------------|-----------------|-----------------|
G|-----------------|-----------------|-----------------|-----------------|
D|-7-7-7-7-7-7-7-7-|-7-7-7-7-7-a-a-9-|-7-7-7-7-7-7-7-7-|-7-7-7-7-7-7-7-7-|
A|-7-7-7-7-7-7-7-7-|-7-7-7-7-7-a-a-9-|-7-7-7-7-7-7-7-7-|-7-7-7-7-7-7-7-7-|
E|-5-5-5-5-5-5-5-5-|-5-5-5-5-5-8-8-7-|-5-5-5-5-5-5-5-5-|-5-5-5-5-5-5-5-5-|

"Yeah, yeah, yeah, yeah, yeah, Yeah, yeah"
Guitar 1
e|-----------------|-----------------|-----------------|-----------------|
B|-----------------|-----------------|-----------------|-----------------|
G|-a-a-a-a-a-a-a-a-|-7-7-7-7-7-7-7-7-|-----------------|-----------------|
D|-a-a-a-a-a-a-a-a-|-7-7-7-7-7-7-7-7-|-3-2---2-2---2-2-|---2-3-2---2-2---|
A|-8-8-8-8-8-8-8-8-|-5-5-5-5-5-5-5-5-|-3-2---2-2---2-2-|---2-3-2---2-2---|
E|-----------------|-----------------|-1-0---0-0---0-0-|---0-1-0---0-0---|
                                                                         |
Guitar 2                                                                 |
e|-----------------|-----------------|-----------------|-----------------|
B|-----------------|-----------------|-----------------|-----------------|
G|-a-a-a-a-a-a-a-a-|-7-7-7-7-7-7-7-7-|-a-9-------------|-----------------|
D|-----------------|-----------------|-------2-2---2-2-|---2-3-2---2-2---|
A|-8-8-8-8-8-8-8-8-|-5-5-5-5-5-5-5-5-|-8-7---2-2---2-2-|---2-3-2---2-2---|
E|-----------------|-----------------|-------0-0---0-0-|---0-1-0---0-0---|

"Yeah, yeah, yeah, yeah, yeah, Yeah"
Guitar 1
e|-----------------|-----------------|
B|-----------------|-----------------|
G|-a-a-a-a-a-a-a-a-|-7-7-7-7-7-7-7-7-|
D|-a-a-a-a-a-a-a-a-|-7-7-7-7-7-7-7-7-|
A|-8-8-8-8-8-8-8-8-|-5-5-5-5-5-5-5-5-|
E|-----------------|-----------------|
                                     |
Guitar 2                             |
e|-----------------|-----------------|
B|-----------------|-----------------|
G|-a-a-a-a-a-a-a-a-|-7-7-7-7-7-7-7-7-|
D|-----------------|-----------------|
A|-8-8-8-8-8-8-8-8-|-5-5-5-5-5-5-5-5-|
E|-----------------|-----------------|


Bridge 1
"Just wanna talk to you, Just wanna get through to"
e|-----------------|-----------------|-----------------|
B|-----------------|-----------------|-----------------|
G|-------------4-4-|-----------------|-----4-4---6-7---|
D|-5-5---7-7---4-4-|---7-7---5-5---7-|-7---4-4---6-7---|
A|-5-5---7-7---2-2-|---7-7---5-5---7-|-7---2-2---4-5---|
E|-3-3---5-5-------|---5-5---3-3---5-|-5---------------|

"you"
e|-----------------|---------|
B|-----------------|---------|
G|-------------4-4-|---------|
D|-5-5---7-7---4-4-|---7-7---|
A|-5-5---7-7---2-2-|---7-7---|
E|-3-3---5-5-------|---5-5---|

"But I'm slidin' on your hateslick" a = 10 c = 11 d = 12
PM_____________________________________________________
e|-----------------|-----------------|-----------------|-----------------|
B|-----------------|-----------------|-----------------|-----------------|
G|-----------------|-----------------|-----------------|-----------d-c-a-|
D|-5-5-5-5-5-5-5-5-|-5-5-5-5-5-5-5-5-|-9-9-9-9-9-9-9-9-|-9-9-9-9-9-d-c-a-|
A|-5-5-5-5-5-5-5-5-|-5-5-5-5-5-5-5-5-|-9-9-9-9-9-9-9-9-|-9-9-9-9-9-a-9-8-|
E|-3-3-3-3-3-3-3-3-|-3-3-3-3-3-3-3-3-|-7-7-7-7-7-7-7-7-|-7-7-7-7-7-------|

Solo 
Both
e|-----------------|-----------------|-----------------|-----------------|
B|-----------------|-----------------|-----------------|-----------------|
G|-----------------|-----------------|-----------------|-----------------|
D|-2-2---2-2---2-2-|---2-2---8-8-8-8-|-2-2---2-2---2-2-|---2-2---6-6-6-6-|
A|-2-2---2-2---2-2-|---2-2---8-8-8-8-|-2-2---2-2---2-2-|---2-2---6-6-6-6-|
E|-0-0---0-0---0-0-|---0-0---6-6-6-6-|-0-0---0-0---0-0-|---0-0---4-4-4-4-|

Guitar 1
e|-----------------|-----------------|-----------------|-----------------|
B|-----------------|-----------------|-----------------|-----------------|
G|-----------------|-----------------|-----------------|-----------------|
D|-2-2---2-2---2-2-|---2-2---8-8-8-8-|-2-2---2-2---2-2-|---2-2---6-6-6-6-|
A|-2-2---2-2---2-2-|---2-2---8-8-8-8-|-2-2---2-2---2-2-|---2-2---6-6-6-6-|
E|-0-0---0-0---0-0-|---0-0---6-6-6-6-|-0-0---0-0---0-0-|---0-0---4-4-4-4-|
                                                                         |
Guitar 2 ring out                                                        |
e|-----------------|-----------------|-----------------|-----------------|
B|-----------------|-----------------|-----------------|-----------------|
G|-9-9---9-9---9-9-|---9-9---a-a-a-a-|-9-9---9-9---9-9-|---9-9---8-8-8-8-|
D|-----------------|-----------------|-----------------|-----------------|
A|-7-7---7-7---7-7-|---7-7---8-8-8-8-|-7-7---7-7---7-7-|---7-7---6-6-6-6-|
E|-----------------|-----------------|-----------------|-----------------|

"Yeah, yeah, yeah, yeah, yeah, Yeah, yeah"
Guitar 1
e|-----------------|-----------------|-----------------|-----------------|
B|-----------------|-----------------|-----------------|-----------------|
G|-a-a-a-a-a-a-a-a-|-7-7-7-7-7-7-7-7-|-----------------|-----------------|
D|-a-a-a-a-a-a-a-a-|-7-7-7-7-7-7-7-7-|-3-2---2-2---2-2-|---2-3-2---2-2---|
A|-8-8-8-8-8-8-8-8-|-5-5-5-5-5-5-5-5-|-3-2---2-2---2-2-|---2-3-2---2-2---|
E|-----------------|-----------------|-1-0---0-0---0-0-|---0-1-0---0-0---|
                                                                         |
Guitar 2                                                                 |
e|-----------------|-----------------|-----------------|-----------------|
B|-----------------|-----------------|-----------------|-----------------|
G|-a-a-a-a-a-a-a-a-|-7-7-7-7-7-7-7-7-|-a-9-------------|-----------------|
D|-----------------|-----------------|-------2-2---2-2-|---2-3-2---2-2---|
A|-8-8-8-8-8-8-8-8-|-5-5-5-5-5-5-5-5-|-8-7---2-2---2-2-|---2-3-2---2-2---|
E|-----------------|-----------------|-------0-0---0-0-|---0-1-0---0-0---|

"Yeah, yeah, yeah, yeah, yeah, Yeah"
Guitar 1
e|-----------------|-----------------|
B|-----------------|-----------------|
G|-a-a-a-a-a-a-a-a-|-7-7-7-7-7-7-7-7-|
D|-a-a-a-a-a-a-a-a-|-7-7-7-7-7-7-7-7-|
A|-8-8-8-8-8-8-8-8-|-5-5-5-5-5-5-5-5-|
E|-----------------|-----------------|
                                     |
Guitar 2                             |
e|-----------------|-----------------|
B|-----------------|-----------------|
G|-a-a-a-a-a-a-a-a-|-7-7-7-7-7-7-7-7-|
D|-----------------|-----------------|
A|-8-8-8-8-8-8-8-8-|-5-5-5-5-5-5-5-5-|
E|-----------------|-----------------|

Bridge 2
"Just wanna talk to you,                Just wanna get through to"
Guitar 1
e|-3---------------|-----------------|-----------------|-----------------|
B|-3---------------|-----------------|-----------------|-----------------|
G|-0---------------|-----------------|-----------------|-----------------|
D|-0---------------|-----------------|-----------------|-----------------|
A|-2---------------|-----------------|-----------------|-----------------|
E|-3---------------|-----------------|-----------------|-----------------|
                                                                         |
Guitar 2                                                                 |
e|-----------------|-----------------|-----------------|-----------------|
B|-----------------|-0-----------0---|-----------------|-0-----------0---|
G|-0--------2------|----------2----2-|-0--------2------|----------2----2-|
D|----0--------0---|----0------------|----0--------0---|----0------------|
A|------2--------2-|------2----------|------2--------2-|------2----------|
E|-----------------|-----------------|-----------------|-----------------|

"you"                         "But I'm slidin'" 
e|-----------------|-----------------|-----------------|-----------------|
B|-----------------|-0-----------0---|-----------------|-0-----------0---|
G|-0--------2------|----------2----2-|-0--------2------|----------2----2-|
D|----0--------0---|----0------------|----0--------0---|----0------------|
A|------2--------2-|------2----------|------2--------2-|------2----------|
E|-----------------|-----------------|-----------------|-----------------|

"Just wanna talk to ya, Just wanna talk to ya"
e|-----------------|-----------------|-----------------|-----------------|
B|-----------------|-0-----------0---|-----------------|-0-----------0---|
G|-0--------2------|----------2----2-|-0--------2------|----------2----2-|
D|----0--------0---|----0------------|----0--------0---|----0------------|
A|------2--------2-|------2----------|------2--------2-|------2----------|
E|-----------------|-----------------|-----------------|-----------------|

Outro
"Just wanna talk to ya,               Just wanna talk to ya"
PM first 2 times only_____________________________________________________ 
e|-----------------|-----------------|-----------------|-----------------|
B|-----------------|-----------------|-----------------|-----------------|
G|-----------------|-----------------|-----------------|-----------------| x3
D|-5-5-5-5-5-5-5-5-|-5-5-5-5-5-5-5-7-|-9-9-9-9-9-9-9-9-|-9-9-9-9-9-9-9-7-|
A|-5-5-5-5-5-5-5-5-|-5-5-5-5-5-5-5-7-|-9-9-9-9-9-9-9-9-|-9-9-9-9-9-9-9-7-|
E|-3-3-3-3-3-3-3-3-|-3-3-3-3-3-3-3-5-|-7-7-7-7-7-7-7-7-|-7-7-7-7-7-7-7-5-|

"Just wanna talk to ya,               Just wanna talk to ya"
                                                         c = 11
e|-----------------|-----------------|-----------------|-----------------|
B|-----------------|-----------------|-----------------|-----------------|
G|-----------------|-----------------|-5-5-5-5-5-5-5-5-|-7-7-7-9-9-9-c-c-|
D|-3-3-3-3-3-3-3-3-|-3-3-3-3-3-3-3-3-|-5-5-5-5-5-5-5-5-|-7-7-7-9-9-9-c-c-|
A|-3-3-3-3-3-3-3-3-|-3-3-3-3-3-3-3-3-|-3-3-3-3-3-3-3-3-|-5-5-5-7-7-7-9-9-|
E|-1-1-1-1-1-1-1-1-|-1-1-1-1-1-1-1-1-|-----------------|-----------------|

  G                                                   E
Guitar 1
e|-------------------------|-------------------------|-----------------|
B|-------------------------|-------------------------|-----------------|
G|-12-12-12-12-12-12-12-12-|-12-12-12-12-12-12-12-12-|-9-9-9-9-9-9-9-9-|
D|-12-12-12-12-12-12-12-12-|-12-12-12-12-12-12-12-12-|-9-9-9-9-9-9-9-9-|
A|-10-10-10-10-10-10-10-10-|-10-10-10-10-10-10-10-10-|-7-7-7-7-7-7-7-7-|
E|-------------------------|-------------------------|-----------------|
                                                                       |
Guitar 2                                                               |
e|-------------------------|-------------------------|-----------------|
B|-------------------------|-------------------------|-----------------|
G|-4--4--4--4--4--4--4--4--|-4--4--4--4--4--4--4--4--|-1-1-1-1-1-1-1-1-|
D|-5--5--5--5--5--5--5--5--|-5--5--5--5--5--5--5--5--|-2-2-2-2-2-2-2-2-|
A|-5--5--5--5--5--5--5--5--|-5--5--5--5--5--5--5--5--|-2-2-2-2-2-2-2-2-|
E|-3--3--3--3--3--3--3--3--|-3--3--3--3--3--3--3--3--|-0-0-0-0-0-0-0-0-|

                    F
Guitar 1
e|-----------------|-------------------------|-------------------------|
B|-----------------|-------------------------|-------------------------|
G|-9-9-9-9-9-9-9-9-|-10-10-10-10-10-10-10-10-|-10-10-10-10-10-10-10-10-|
D|-9-9-9-9-9-9-9-9-|-10-10-10-10-10-10-10-10-|-10-10-10-10-10-10-10-10-|
A|-7-7-7-7-7-7-7-7-|-8--8--8--8--8--8--8--8--|-8--8--8--8--8--8--8--8--|
E|-----------------|-------------------------|-------------------------|
                                                                       |
Guitar 2                                                               |
e|-----------------|-------------------------|-------------------------|
B|-----------------|-------------------------|-------------------------|
G|-1-1-1-1-1-1-1-1-|-2--2--2--2--2--2--2--2--|-2--2--2--2--2--2--2--2--|
D|-2-2-2-2-2-2-2-2-|-3--3--3--3--3--3--3--3--|-3--3--3--3--3--3--3--3--|
A|-2-2-2-2-2-2-2-2-|-3--3--3--3--3--3--3--3--|-3--3--3--3--3--3--3--3--|
E|-0-0-0-0-0-0-0-0-|-1--1--1--1--1--1--1--1--|-1--1--1--1--1--1--1--1--|

   G
Guitar 1
e|-------------------------|-------------------------|-------------------------|
B|-------------------------|-------------------------|-------------------------|
G|-12-12-12-12-12-12-12-12-|-12-12-12-12-12-12-12-12-|-12-12-12-12-12-12-12-12-|
D|-12-12-12-12-12-12-12-12-|-12-12-12-12-12-12-12-12-|-12-12-12-12-12-12-12-12-|
A|-10-10-10-10-10-10-10-10-|-10-10-10-10-10-10-10-10-|-10-10-10-10-10-10-10-10-|
E|-------------------------|-------------------------|-------------------------|
                                                                               |
Guitar 2                                                                       |
e|-------------------------|-------------------------|-------------------------|
B|-------------------------|-------------------------|-------------------------|
G|-4--4--4--4--4--4--4--4--|-4--4--4--4--4--4--4--4--|-4--4--4--4--4--4--4--4--|
D|-5--5--5--5--5--5--5--5--|-5--5--5--5--5--5--5--5--|-5--5--5--5--5--5--5--5--|
A|-5--5--5--5--5--5--5--5--|-5--5--5--5--5--5--5--5--|-5--5--5--5--5--5--5--5--|
E|-3--3--3--3--3--3--3--3--|-3--3--3--3--3--3--3--3--|-3--3--3--3--3--3--3--3--|

  G                          E                                  F
Guitar 1
e|-------------------------|-----------------|-----------------|-------------------------|
B|-------------------------|-----------------|-----------------|-------------------------|
G|-12-12-12-12-12-12-12-12-|-9-9-9-9-9-9-9-9-|-9-9-9-9-9-9-9-9-|-10-10-10-10-10-10-10-10-|
D|-12-12-12-12-12-12-12-12-|-9-9-9-9-9-9-9-9-|-9-9-9-9-9-9-9-9-|-10-10-10-10-10-10-10-10-|
A|-10-10-10-10-10-10-10-10-|-7-7-7-7-7-7-7-7-|-7-7-7-7-7-7-7-7-|-8--8--8--8--8--8--8--8--|
E|-------------------------|-----------------|-----------------|-------------------------|
                                                                                         |
Guitar 2                                                                                 |
e|-------------------------|-----------------|-----------------|-------------------------|
B|-------------------------|-----------------|-----------------|-------------------------|
G|-4--4--4--4--4--4--4--4--|-1-1-1-1-1-1-1-1-|-1-1-1-1-1-1-1-1-|-2--2--2--2--2--2--2--2--|
D|-5--5--5--5--5--5--5--5--|-2-2-2-2-2-2-2-2-|-2-2-2-2-2-2-2-2-|-3--3--3--3--3--3--3--3--|
A|-5--5--5--5--5--5--5--5--|-2-2-2-2-2-2-2-2-|-2-2-2-2-2-2-2-2-|-3--3--3--3--3--3--3--3--|
E|-3--3--3--3--3--3--3--3--|-0-0-0-0-0-0-0-0-|-0-0-0-0-0-0-0-0-|-1--1--1--1--1--1--1--1--|

  F                          G       E        F        D        E       C
Guitar 1
e|-------------------------|-----------------|-----------------|-----------------|
B|-------------------------|-----------------|-----------------|-----------------|
G|-10-10-10-10-10-10-10-10-|-12------9-------|-10------7-------|-9-------5-------|
D|-10-10-10-10-10-10-10-10-|-12------9-------|-10------7-------|-9-------5-------|
A|-8--8--8--8--8--8--8--8--|-10------7-------|-8-------5-------|-7-------3-------|
E|-------------------------|-----------------|-----------------|-----------------|
                                                                                 |
Guitar 2                                                                         |
e|-------------------------|-----------------|-----------------|-----------------|
B|-------------------------|-----------------|-----------------|-----------------|
G|-2--2--2--2--2--2--2--2--|-12------9-------|-10------7-------|-9-------5-------|
D|-3--3--3--3--3--3--3--3--|-12------9-------|-10------7-------|-9-------5-------|
A|-3--3--3--3--3--3--3--3--|-10------7-------|-8-------5-------|-7-------3-------|
E|-1--1--1--1--1--1--1--1--|-----------------|-----------------|-----------------|

"Yeah, yeah"
  G                                                   E
Guitar 1
e|-------------------------|-------------------------|-----------------|
B|-------------------------|-------------------------|-----------------|
G|-12-12-12-12-12-12-12-12-|-12-12-12-12-12-12-12-12-|-9-9-9-9-9-9-9-9-|
D|-12-12-12-12-12-12-12-12-|-12-12-12-12-12-12-12-12-|-9-9-9-9-9-9-9-9-|
A|-10-10-10-10-10-10-10-10-|-10-10-10-10-10-10-10-10-|-7-7-7-7-7-7-7-7-|
E|-------------------------|-------------------------|-----------------|
                                                                       |
Guitar 2                                                               |
e|-------------------------|-------------------------|-----------------|
B|-------------------------|-------------------------|-----------------|
G|-4--4--4--4--4--4--4--4--|-4--4--4--4--4--4--4--4--|-1-1-1-1-1-1-1-1-|
D|-5--5--5--5--5--5--5--5--|-5--5--5--5--5--5--5--5--|-2-2-2-2-2-2-2-2-|
A|-5--5--5--5--5--5--5--5--|-5--5--5--5--5--5--5--5--|-2-2-2-2-2-2-2-2-|
E|-3--3--3--3--3--3--3--3--|-3--3--3--3--3--3--3--3--|-0-0-0-0-0-0-0-0-|

                    "Yeah, yeah"
                    F
Guitar 1
e|-----------------|-------------------------|-------------------------|
B|-----------------|-------------------------|-------------------------|
G|-9-9-9-9-9-9-9-9-|-10-10-10-10-10-10-10-10-|-10-10-10-10-10-10-10-10-|
D|-9-9-9-9-9-9-9-9-|-10-10-10-10-10-10-10-10-|-10-10-10-10-10-10-10-10-|
A|-7-7-7-7-7-7-7-7-|-8--8--8--8--8--8--8--8--|-8--8--8--8--8--8--8--8--|
E|-----------------|-------------------------|-------------------------|
                                                                       |
Guitar 2                                                               |
e|-----------------|-------------------------|-------------------------|
B|-----------------|-------------------------|-------------------------|
G|-1-1-1-1-1-1-1-1-|-2--2--2--2--2--2--2--2--|-2--2--2--2--2--2--2--2--|
D|-2-2-2-2-2-2-2-2-|-3--3--3--3--3--3--3--3--|-3--3--3--3--3--3--3--3--|
A|-2-2-2-2-2-2-2-2-|-3--3--3--3--3--3--3--3--|-3--3--3--3--3--3--3--3--|
E|-0-0-0-0-0-0-0-0-|-1--1--1--1--1--1--1--1--|-1--1--1--1--1--1--1--1--|

   G
Guitar 1
e|-------------------------|-------------------------|-------------------------|
B|-------------------------|-------------------------|-------------------------|
G|-12-12-12-12-12-12-12-12-|-12-12-12-12-12-12-12-12-|-12-12-12-12-12-12-12-12-|
D|-12-12-12-12-12-12-12-12-|-12-12-12-12-12-12-12-12-|-12-12-12-12-12-12-12-12-|
A|-10-10-10-10-10-10-10-10-|-10-10-10-10-10-10-10-10-|-10-10-10-10-10-10-10-10-|
E|-------------------------|-------------------------|-------------------------|
                                                                               |
Guitar 2                                                                       |
e|-------------------------|-------------------------|-------------------------|
B|-------------------------|-------------------------|-------------------------|
G|-4--4--4--4--4--4--4--4--|-4--4--4--4--4--4--4--4--|-4--4--4--4--4--4--4--4--|
D|-5--5--5--5--5--5--5--5--|-5--5--5--5--5--5--5--5--|-5--5--5--5--5--5--5--5--|
A|-5--5--5--5--5--5--5--5--|-5--5--5--5--5--5--5--5--|-5--5--5--5--5--5--5--5--|
E|-3--3--3--3--3--3--3--3--|-3--3--3--3--3--3--3--3--|-3--3--3--3--3--3--3--3--|

"Yeah, yeah"                                                    "Yeah, yeah"
  G                          E                                  F
Guitar 1
e|-------------------------|-----------------|-----------------|-------------------------|
B|-------------------------|-----------------|-----------------|-------------------------|
G|-12-12-12-12-12-12-12-12-|-9-9-9-9-9-9-9-9-|-9-9-9-9-9-9-9-9-|-10-10-10-10-10-10-10-10-|
D|-12-12-12-12-12-12-12-12-|-9-9-9-9-9-9-9-9-|-9-9-9-9-9-9-9-9-|-10-10-10-10-10-10-10-10-|
A|-10-10-10-10-10-10-10-10-|-7-7-7-7-7-7-7-7-|-7-7-7-7-7-7-7-7-|-8--8--8--8--8--8--8--8--|
E|-------------------------|-----------------|-----------------|-------------------------|
                                                                                         |
Guitar 2                                                                                 |
e|-------------------------|-----------------|-----------------|-------------------------|
B|-------------------------|-----------------|-----------------|-------------------------|
G|-4--4--4--4--4--4--4--4--|-1-1-1-1-1-1-1-1-|-1-1-1-1-1-1-1-1-|-2--2--2--2--2--2--2--2--|
D|-5--5--5--5--5--5--5--5--|-2-2-2-2-2-2-2-2-|-2-2-2-2-2-2-2-2-|-3--3--3--3--3--3--3--3--|
A|-5--5--5--5--5--5--5--5--|-2-2-2-2-2-2-2-2-|-2-2-2-2-2-2-2-2-|-3--3--3--3--3--3--3--3--|
E|-3--3--3--3--3--3--3--3--|-0-0-0-0-0-0-0-0-|-0-0-0-0-0-0-0-0-|-1--1--1--1--1--1--1--1--|

   F                        G
Guitar 1
e|-------------------------|-------------------------|-------------------------|-3-------|
B|-------------------------|-------------------------|-------------------------|-3-------|
G|-10-10-10-10-10-10-10-10-|-12-12-12-12-12-12-12-12-|-12-12-12-12-12-12-12-12-|-0-------|
D|-10-10-10-10-10-10-10-10-|-12-12-12-12-12-12-12-12-|-12-12-12-12-12-12-12-12-|-0-------|
A|-8--8--8--8--8--8--8--8--|-10-10-10-10-10-10-10-10-|-10-10-10-10-10-10-10-10-|-2-------|
E|-------------------------|-------------------------|-------------------------|-3-------|
                                                                                         |
Guitar 2                                                                                 |
e|-------------------------|-------------------------|-------------------------|-3-------|
B|-------------------------|-------------------------|-------------------------|-3-------|
G|-2--2--2--2--2--2--2--2--|-4--4--4--4--4--4--4--4--|-4--4--4--4--4--4--4--4--|-4-------|
D|-3--3--3--3--3--3--3--3--|-5--5--5--5--5--5--5--5--|-5--5--5--5--5--5--5--5--|-5-------|
A|-3--3--3--3--3--3--3--3--|-5--5--5--5--5--5--5--5--|-5--5--5--5--5--5--5--5--|-5-------|
E|-1--1--1--1--1--1--1--1--|-3--3--3--3--3--3--3--3--|-3--3--3--3--3--3--3--3--|-3-------|
__________________________________________________________________________________________________

13. Love's Cradle


Bass intro
G|-----------------|-------------------|
D|-----------------|-------------------| x2
A|-----6-7-----6-7-|-----6-7---7/9-7-6-|
E|-0-0-----0-0-----|-0-0-----0---------|

Verse 1
"They're talking of ways to make you up to break you down"
e|-----------------|-----------------|-----------------|-----------------|
B|-----------------|-----------------|-----------------|-----------------|
G|-----------------|-----------------|-7-7-7-7-7-7-7-7-|-7-7-7-7-7-7-7-7-|
D|-7---7---7-7-7-7-|-4---4---4-4-4-4-|-7-7-7-7-7-7-7-7-|-7-7-7-7-7-7-7-7-|
A|-7---7---7-7-7-7-|-4---4---4-4-4-4-|-5-5-5-5-5-5-5-5-|-5-5-5-5-5-5-5-5-|
E|-5---5---5-5-5-5-|-2---2---2-2-2-2-|-----------------|-----------------|

"And these are the days to make it up - to get around"
e|-----------------|-----------------|-----------------|-----------------|
B|-----------------|-----------------|-----------------|-----------------|
G|-----------------|-----------------|-7---7---7-7-7-7-|-----------------|
D|-7---7---7-7-7-7-|-4---4---4-4-4-4-|-7---7---7-7-7-7-|-9---9---9-9-9-8-|
A|-7---7---7-7-7-7-|-4---4---4-4-4-4-|-5---5---5-5-5-5-|-9---9---9-9-9-8-|
E|-5---5---5-5-5-5-|-2---2---2-2-2-2-|-----------------|-7---7---7-7-7-6-|

"You claim you're the harmed, but you're the face that looks away"
e|-----------------|-----------------|-----------------|-----------------|
B|-----------------|-----------------|-----------------|-----------------|
G|-----------------|-----------------|-7-7-7-7-7-7-7-7-|-7-7-7-7-7-7-7-7-|
D|-7---7---7-7-7-7-|-4---4---4-4-4-4-|-7-7-7-7-7-7-7-7-|-7-7-7-7-7-7-7-7-|
A|-7---7---7-7-7-7-|-4---4---4-4-4-4-|-5-5-5-5-5-5-5-5-|-5-5-5-5-5-5-5-5-|
E|-5---5---5-5-5-5-|-2---2---2-2-2-2-|-----------------|-----------------|

"So lay down your arms, we know the war is on it's way"
e|-----------------|-----------------|-----------------|-----------------|
B|-----------------|-----------------|-----------------|-----------------|
G|-----------------|-----------------|-7---7---7-7-7-7-|-----------------|
D|-7---7---7-7-7-7-|-4---4---4-4-4-4-|-7---7---7-7-7-7-|-9---9---9-9-9-9-|
A|-7---7---7-7-7-7-|-4---4---4-4-4-4-|-5---5---5-5-5-5-|-9---9---9-9-9-9-|
E|-5---5---5-5-5-5-|-2---2---2-2-2-2-|-----------------|-7---7---7-7-7-7-|

Pre chorus
"And you want to live on my side"
Guitar 1
e|-----------------|-----------------|-----------------|-----------------|
B|-----------------|-----------------|-----------------|-----------------|
G|-7-------7---7---|-6-------6---6---|-----------------|-----------------|
D|-7-------7---7---|-6-------6---6---|-2---2---4-2-----|-2---2---4-2-----|
A|-5-------5---5---|-4-------4---4---|-2---2---4-2-----|-2---2---4-2-----|
E|-----------------|-----------------|-0---0---2-0-----|-0---0---2-0-----|
                                                                         |
Guitar 2                                                                 |
e|-------10--------|-------9---------|-----------------|-----------------|
B|-----10---10-----|-----9----9------|-----------------|-----------------|
G|---11------------|---9-------------|-----------------|-----------------|
D|-12--------------|-11--------------|-2---2---4-2-----|-2---2---4-2-----|
A|-----------------|-----------------|-2---2---4-2-----|-2---2---4-2-----|
E|-----------------|-----------------|-0---0---2-0-----|-0---0---2-0-----|

"Don't let the child in you die"
Guitar 1
e|-----------------|-----------------|-----------------|-----------------|
B|-----------------|-----------------|-----------------|-----------------|
G|-7-------7---7---|-6-------6---6---|-----------------|-----------------|
D|-7-------7---7---|-6-------6---6---|-2---2---4-2-----|-2---2---4-2-----|
A|-5-------5---5---|-4-------4---4---|-2---2---4-2-----|-2---2---4-2-----|
E|-----------------|-----------------|-0---0---2-0-----|-0---0---2-0-----|
                                                                         |
Guitar 2                                                                 |
e|-------10--------|-------9---------|-----------------|-----------------|
B|-----10---10-----|-----9----9------|-----------------|-----------------|
G|---11------------|---9-------------|-----------------|-----------------|
D|-12--------------|-11--------------|-2---2---4-2-----|-2---2---4-2-----|
A|-----------------|-----------------|-2---2---4-2-----|-2---2---4-2-----|
E|-----------------|-----------------|-0---0---2-0-----|-0---0---2-0-----|

Verse 2
"We're sleeping on glass that cuts so deep your blood is cheap"
e|-----------------|-----------------|-----------------|-----------------|
B|-----------------|-----------------|-----------------|-----------------|
G|-----------------|-----------------|-7-7-7-7-7-7-7-7-|-7-7-7-7-7-7-7-7-|
D|-7---7---7-7-7-7-|-4---4---4-4-4-4-|-7-7-7-7-7-7-7-7-|-7-7-7-7-7-7-7-7-|
A|-7---7---7-7-7-7-|-4---4---4-4-4-4-|-5-5-5-5-5-5-5-5-|-5-5-5-5-5-5-5-5-|
E|-5---5---5-5-5-5-|-2---2---2-2-2-2-|-----------------|-----------------|

"Material ghosts who wander streets.. Wandering"
e|-----------------|-----------------|-----------------|-----------------|
B|-----------------|-----------------|-----------------|-----------------|
G|-----------------|-----------------|-7---7---7-7-7-7-|-----------------|
D|-7---7---7-7-7-7-|-4---4---4-4-4-4-|-7---7---7-7-7-7-|-9---9---9-9-9-8-|
A|-7---7---7-7-7-7-|-4---4---4-4-4-4-|-5---5---5-5-5-5-|-9---9---9-9-9-8-|
E|-5---5---5-5-5-5-|-2---2---2-2-2-2-|-----------------|-7---7---7-7-7-6-|

Pre chorus
"I want to live on love's side"
Guitar 1
e|-----------------|-----------------|-----------------|-----------------|
B|-----------------|-----------------|-----------------|-----------------|
G|-7-------7---7---|-6-------6---6---|-----------------|-----------------|
D|-7-------7---7---|-6-------6---6---|-2---2---4-2-----|-2---2---4-2-----|
A|-5-------5---5---|-4-------4---4---|-2---2---4-2-----|-2---2---4-2-----|
E|-----------------|-----------------|-0---0---2-0-----|-0---0---2-0-----|
                                                                         |
Guitar 2                                                                 |
e|-------10--------|-------9---------|-----------------|-----------------|
B|-----10---10-----|-----9----9------|-----------------|-----------------|
G|---11------------|---9-------------|-----------------|-----------------|
D|-12--------------|-11--------------|-2---2---4-2-----|-2---2---4-2-----|
A|-----------------|-----------------|-2---2---4-2-----|-2---2---4-2-----|
E|-----------------|-----------------|-0---0---2-0-----|-0---0---2-0-----|

"Don't let the child in you die.. And"
Guitar 1
e|-----------------|-----------------|-----------------|-----------------|
B|-----------------|-----------------|-----------------|-----------------|
G|-7-------7---7---|-6-------6---6---|-----------------|-----------------|
D|-7-------7---7---|-6-------6---6---|-2---2---4-2-----|-2---2---4-2-----|
A|-5-------5---5---|-4-------4---4---|-2---2---4-2-----|-2---2---4-2-----|
E|-----------------|-----------------|-0---0---2-0-----|-0---0---2-0-----|
                                                                         |
Guitar 2                                                                 |
e|-------10--------|-------9---------|-----------------|-----------------|
B|-----10---10-----|-----9----9------|-----------------|-----------------|
G|---11------------|---9-------------|-----------------|-----------------|
D|-12--------------|-11--------------|-2---2---4-2-----|-2---2---4-2-----|
A|-----------------|-----------------|-2---2---4-2-----|-2---2---4-2-----|
E|-----------------|-----------------|-0---0---2-0-----|-0---0---2-0-----|

Chorus
"Don't fade on me, don't make believe"
e|-----------------|-----------------|-----------------|-----------------|
B|-----------------|-----------------|-----------------|-----------------|
G|-----------------|-----------------|-----------------|-----------------|
D|-7-7-----7-7-----|-7-7-----7-7-----|-4-4-----4-4-----|-4-4-----4-4-----|
A|-7-7-----7-7-----|-7-7-----7-7-----|-4-4-----4-4-----|-4-4-----4-4-----|
E|-5-5-----5-5-----|-5-5-----5-5-----|-2-2-----2-2-----|-2-2-----2-2-----|

"The animals will break you if they can"
e|-----------------|-----------------|-----------------|-----------------|
B|-----------------|-----------------|-----------------|-----------------|
G|-7-7-----7-7-----|-7-7-----7-7-----|-----------------|-----------------|
D|-7-7-----7-7-----|-7-7-----7-7-----|-4-4-----4-4-4-4-|-2-2-2-2-2-2-2-2-|
A|-5-5-----5-5-----|-5-5-----5-5-----|-4-4-----4-4-4-4-|-2-2-2-2-2-2-2-2-|
E|-----------------|-----------------|-2-2-----2-2-2-2-|-0-0-0-0-0-0-0-0-|

"So stay a while with me. A life condition free"
Guitar 1
e|-----------------|-----------------|-----------------|-----------------|
B|-----------------|-----------------|-----------------|-----------------|
G|-----------------|-----------------|-----------------|-----------------|
D|-7-7-7-7-7-7-7-7-|-7-7-7-7-7-7-7-7-|-4-4-4-4-4-4-4-4-|-4-4-4-4-4-4-4-4-|
A|-7-7-7-7-7-7-7-7-|-7-7-7-7-7-7-7-7-|-4-4-4-4-4-4-4-4-|-4-4-4-4-4-4-4-4-|
E|-5-5-5-5-5-5-5-5-|-5-5-5-5-5-5-5-5-|-2-2-2-2-2-2-2-2-|-2-2-2-2-2-2-2-2-|
                                                                         |
Guitar 2                                                                 |
e|-5-5-5-5-5-5-5-5-|-5-5-5-5-5-5-5-5-|-----------------|-----------------|
B|-5-5-5-5-5-5-5-5-|-5-5-5-5-5-5-5-5-|-2-2-2-2-2-2-2-2-|-2-2-2-2-2-2-2-2-|
G|-2-2-2-2-2-2-2-2-|-2-2-2-2-2-2-2-2-|-2-2-2-2-2-2-2-2-|-2-2-2-2-2-2-2-2-|
D|-2-2-2-2-2-2-2-2-|-2-2-2-2-2-2-2-2-|-4-4-4-4-4-4-4-4-|-4-4-4-4-4-4-4-4-|
A|-0-0-0-0-0-0-0-0-|-0-0-0-0-0-0-0-0-|-4-4-4-4-4-4-4-4-|-4-4-4-4-4-4-4-4-|
E|-----------------|-----------------|-2-2-2-2-2-2-2-2-|-2-2-2-2-2-2-2-2-|

"In love's cradle wherever you may be"
Guitar 1
e|-----------------|-----------------|-----------------|-0---------------|
B|-----------------|-----------------|-----------------|-0---------------|
G|-7-7-7-7-7-7-7-7-|-7-7-7-7-7-7-7-7-|-----------------|-1---------------|
D|-7-7-7-7-7-7-7-7-|-7-7-7-7-7-7-7-7-|-4-4-4-4-4-4-4-4-|-2---------------|
A|-5-5-5-5-5-5-5-5-|-5-5-5-5-5-5-5-5-|-4-4-4-4-4-4-4-4-|-2---------------|
E|-----------------|-----------------|-2-2-2-2-2-2-2-2-|-0---------------|
                                                                         |
Guitar 2                                                                 |
e|-2-2-2-2-2-2-2-2-|-2-2-2-2-2-2-2-2-|-----------------|-0---------------|
B|-3-3-3-3-3-3-3-3-|-3-3-3-3-3-3-3-3-|-----------------|-0---------------|
G|-2-2-2-2-2-2-2-2-|-2-2-2-2-2-2-2-2-|-2-2-2-2-2-2-2-2-|-1---------------|
D|-0-0-0-0-0-0-0-0-|-0-0-0-0-0-0-0-0-|-4-4-4-4-4-4-4-4-|-2---------------|
A|-----------------|-----------------|-4-4-4-4-4-4-4-4-|-2---------------|
E|-----------------|-----------------|-2-2-2-2-2-2-2-2-|-0---------------|

Bass only 
G|-----------------|-------------------|
D|-----------------|-------------------|
A|-----6-7-----6-7-|-----6-7---7/9-7-6-|
E|-0-0-----0-0-----|-0-0-----0---------|

Verse 3
"Talking of ways to make you see the real me"
e|-----------------|-----------------|-----------------|-----------------|
B|-----------------|-----------------|-----------------|-----------------|
G|-----------------|-----------------|-7-7-7-7-7-7-7-7-|-7-7-7-7-7-7-7-7-|
D|-7---7---7-7-7-7-|-4---4---4-4-4-4-|-7-7-7-7-7-7-7-7-|-7-7-7-7-7-7-7-7-|
A|-7---7---7-7-7-7-|-4---4---4-4-4-4-|-5-5-5-5-5-5-5-5-|-5-5-5-5-5-5-5-5-|
E|-5---5---5-5-5-5-|-2---2---2-2-2-2-|-----------------|-----------------|

"So just be yourself and you can be what you've always been"
e|-----------------|-----------------|-----------------|-----------------|
B|-----------------|-----------------|-----------------|-----------------|
G|-----------------|-----------------|-7---7---7-7-7-7-|-----------------|
D|-7---7---7-7-7-7-|-4---4---4-4-4-4-|-7---7---7-7-7-7-|-9---9---9-9-9-8-|
A|-7---7---7-7-7-7-|-4---4---4-4-4-4-|-5---5---5-5-5-5-|-9---9---9-9-9-8-|
E|-5---5---5-5-5-5-|-2---2---2-2-2-2-|-----------------|-7---7---7-7-7-6-|

Pre chorus
"I want to live on love's side" 
Guitar 1
e|-----------------|-----------------|-----------------|-----------------|
B|-----------------|-----------------|-----------------|-----------------|
G|-7-------7---7---|-6-------6---6---|-----------------|-----------------|
D|-7-------7---7---|-6-------6---6---|-2---2---4-2-----|-2---2---4-2-----|
A|-5-------5---5---|-4-------4---4---|-2---2---4-2-----|-2---2---4-2-----|
E|-----------------|-----------------|-0---0---2-0-----|-0---0---2-0-----|
                                                                         |
Guitar 2                                                                 |
e|-------10--------|-------9---------|-----------------|-----------------|
B|-----10---10-----|-----9----9------|-----------------|-----------------|
G|---11------------|---9-------------|-----------------|-----------------|
D|-12--------------|-11--------------|-2---2---4-2-----|-2---2---4-2-----|
A|-----------------|-----------------|-2---2---4-2-----|-2---2---4-2-----|
E|-----------------|-----------------|-0---0---2-0-----|-0---0---2-0-----|

"Don't ask, don't lie just get high. And"
Guitar 1                                                PM_______________
e|-----------------|-----------------|-----------------|-----------------|
B|-----------------|-----------------|-----------------|-----------------|
G|-7-------7---7---|-6-------6---6---|-----------------|-----------------|
D|-7-------7---7---|-6-------6---6---|-2---------------|-2-2-2-2-2-2-2-2-|
A|-5-------5---5---|-4-------4---4---|-2---------------|-2-2-2-2-2-2-2-2-|
E|-----------------|-----------------|-0---------------|-0-0-0-0-0-0-0-0-|
                                                                         |
Guitar 2                                                PM_______________|
e|-------10--------|-------9---------|-----------------|-----------------|
B|-----10---10-----|-----9----9------|-----------------|-----------------|
G|---11------------|---9-------------|-----------------|-----------------|
D|-12--------------|-11--------------|-2---------------|-2-2-2-2-2-2-2-2-|
A|-----------------|-----------------|-2---------------|-2-2-2-2-2-2-2-2-|
E|-----------------|-----------------|-0---------------|-0-0-0-0-0-0-0-0-|

Outro Chorus
"Don't fade on me, don't make believe"
e|-----------------|-----------------|-----------------|-----------------|
B|-----------------|-----------------|-----------------|-----------------|
G|-----------------|-----------------|-----------------|-----------------|
D|-7-7-----7-7-----|-7-7-----7-7-----|-4-4-----4-4-----|-4-4-----4-4-----|
A|-7-7-----7-7-----|-7-7-----7-7-----|-4-4-----4-4-----|-4-4-----4-4-----|
E|-5-5-----5-5-----|-5-5-----5-5-----|-2-2-----2-2-----|-2-2-----2-2-----|

"The animals will break you if they can"
e|-----------------|-----------------|-----------------|-----------------|
B|-----------------|-----------------|-----------------|-----------------|
G|-7-7-----7-7-----|-7-7-----7-7-----|-----------------|-----------------|
D|-7-7-----7-7-----|-7-7-----7-7-----|-4-4-----4-4-4-4-|-2-2-2-2-2-2-2-2-|
A|-5-5-----5-5-----|-5-5-----5-5-----|-4-4-----4-4-4-4-|-2-2-2-2-2-2-2-2-|
E|-----------------|-----------------|-2-2-----2-2-2-2-|-0-0-0-0-0-0-0-0-|

"So stay a while with me. A life condition free"
Guitar 1
e|-----------------|-----------------|-----------------|-----------------|
B|-----------------|-----------------|-----------------|-----------------|
G|-----------------|-----------------|-----------------|-----------------|
D|-7-7-7-7-7-7-7-7-|-7-7-7-7-7-7-7-7-|-4-4-4-4-4-4-4-4-|-4-4-4-4-4-4-4-4-|
A|-7-7-7-7-7-7-7-7-|-7-7-7-7-7-7-7-7-|-4-4-4-4-4-4-4-4-|-4-4-4-4-4-4-4-4-|
E|-5-5-5-5-5-5-5-5-|-5-5-5-5-5-5-5-5-|-2-2-2-2-2-2-2-2-|-2-2-2-2-2-2-2-2-|
                                                                         |
Guitar 2                                                                 |
e|-5-5-5-5-5-5-5-5-|-5-5-5-5-5-5-5-5-|-----------------|-----------------|
B|-5-5-5-5-5-5-5-5-|-5-5-5-5-5-5-5-5-|-2-2-2-2-2-2-2-2-|-2-2-2-2-2-2-2-2-|
G|-2-2-2-2-2-2-2-2-|-2-2-2-2-2-2-2-2-|-2-2-2-2-2-2-2-2-|-2-2-2-2-2-2-2-2-|
D|-2-2-2-2-2-2-2-2-|-2-2-2-2-2-2-2-2-|-4-4-4-4-4-4-4-4-|-4-4-4-4-4-4-4-4-|
A|-0-0-0-0-0-0-0-0-|-0-0-0-0-0-0-0-0-|-4-4-4-4-4-4-4-4-|-4-4-4-4-4-4-4-4-|
E|-----------------|-----------------|-2-2-2-2-2-2-2-2-|-2-2-2-2-2-2-2-2-|

"In love's cradle wherever you may be" 
Guitar 1
e|-----------------|-----------------|-----------------|-----------------|
B|-----------------|-----------------|-----------------|-----------------|
G|-7-7-7-7-7-7-7-7-|-7-7-7-7-7-7-7-7-|-----------------|-----------------|
D|-7-7-7-7-7-7-7-7-|-7-7-7-7-7-7-7-7-|-4-4-4-4-4-4-4-4-|-2-2-2-2-2-2-2-2-|
A|-5-5-5-5-5-5-5-5-|-5-5-5-5-5-5-5-5-|-4-4-4-4-4-4-4-4-|-2-2-2-2-2-2-2-2-|
E|-----------------|-----------------|-2-2-2-2-2-2-2-2-|-0-0-0-0-0-0-0-0-|
                                                                         |
Guitar 2                                                                 |
e|-2-2-2-2-2-2-2-2-|-2-2-2-2-2-2-2-2-|-----------------|-----------------|
B|-3-3-3-3-3-3-3-3-|-3-3-3-3-3-3-3-3-|-----------------|-----------------|
G|-2-2-2-2-2-2-2-2-|-2-2-2-2-2-2-2-2-|-2-2-2-2-2-2-2-2-|-----------------|
D|-0-0-0-0-0-0-0-0-|-0-0-0-0-0-0-0-0-|-4-4-4-4-4-4-4-4-|-2-2-2-2-2-2-2-2-|
A|-----------------|-----------------|-4-4-4-4-4-4-4-4-|-2-2-2-2-2-2-2-2-|
E|-----------------|-----------------|-2-2-2-2-2-2-2-2-|-0-0-0-0-0-0-0-0-|

e|-----------------|-----------------|-----------------|-2---------------|
B|-----------------|-----------------|-----------------|-2---------------|
G|-----------------|-----------------|-7-7-7-7-7-x-x-x-|-2---------------|
D|-7-7-7-7-7-x-x-x-|-4-4-4-4-4-x-x-x-|-7-7-7-7-7-x-x-x-|-4---------------|
A|-7-7-7-7-7-x-x-x-|-4-4-4-4-4-x-x-x-|-5-5-5-5-5-x-x-x-|-4---------------|
E|-5-5-5-5-5-x-x-x-|-2-2-2-2-2-x-x-x-|-----------------|-2---------------|
__________________________________________________________________________________________________


14. Aniseed

Intro 
e|-----------------|
B|-----------------|
G|-4-4-4-4-4-4-4-4-| x4
D|-4-4-4-4-4-4-4-4-|
A|-2-2-2-2-2-2-2-2-|
E|-----------------|

Verse 1
"Little people looking through windows, Checking out there alter egos"
e|-----------------|-----------------|-----------------|-----------------|
B|-----------------|-----------------|-----------------|-----------------|
G|-4-4-4-4-4-4-4-4-|-4-4-4-4-4-4-4-4-|-4-4-4-4-4-4-4-4-|-4-4-4-4-4-4-4-4-|
D|-4-4-4-4-4-4-4-4-|-4-4-4-4-4-4-4-4-|-4-4-4-4-4-4-4-4-|-4-4-4-4-4-4-4-4-|
A|-2-2-2-2-2-2-2-2-|-2-2-2-2-2-2-2-2-|-2-2-2-2-2-2-2-2-|-2-2-2-2-2-2-2-2-|
E|-----------------|-----------------|-----------------|-----------------|

"Down                Out"
e|-----------------|-----------------|-----------------|
B|-----------------|-----------------|-----------------|
G|-----------------|-----------------|-----------------|
D|-2-5--2-5---5----|-2-5--2-5---5----|-2-5--2-5---7----|
A|-2-5--2-5---5----|-2-5--2-5---5----|-2-5--2-5---7----|
E|-0-3--0-3---3----|-0-3--0-3---3----|-0-3--0-3---5----|

"No risk if there is no passion, Your computers checking my ration"
e|-----------------|-----------------|-----------------|-----------------|
B|-----------------|-----------------|-----------------|-----------------|
G|-4-4-4-4-4-4-4-4-|-4-4-4-4-4-4-4-4-|-4-4-4-4-4-4-4-4-|-4-4-4-4-4-4-4-4-|
D|-4-4-4-4-4-4-4-4-|-4-4-4-4-4-4-4-4-|-4-4-4-4-4-4-4-4-|-4-4-4-4-4-4-4-4-|
A|-2-2-2-2-2-2-2-2-|-2-2-2-2-2-2-2-2-|-2-2-2-2-2-2-2-2-|-2-2-2-2-2-2-2-2-|
E|-----------------|-----------------|-----------------|-----------------|

"Down                Out"
e|-----------------|-----------------|-----------------|
B|-----------------|-----------------|-----------------|
G|-----------------|-----------------|-----------------|
D|-2-5--2-5---5----|-2-5--2-5---5----|-2-5--2-5---7----|
A|-2-5--2-5---5----|-2-5--2-5---5----|-2-5--2-5---7----|
E|-0-3--0-3---3----|-0-3--0-3---3----|-0-3--0-3---5----|

"Take heed"
e|-----------------|-----------------|
B|-----------------|-----------------|
G|-4-4-4-4-4-4-4-4-|-4-4-4-4-4-4-4-4-|
D|-4-4-4-4-4-4-4-4-|-4-4-4-4-4-4-4-4-|
A|-2-2-2-2-2-2-2-2-|-2-2-2-2-2-2-2-2-|
E|-----------------|-----------------|

Chorus 1
"You cut I bleed blood like aniseed"
e|-----------------|-----------------|-----------------|-----------------|
B|-----------------|-8-8-8-8-8-8-8-8-|-----------------|-----------------|
G|-9-9-9-9-9-9-9-9-|-7-7-7-7-7-7-7-7-|-4-4-4-4-4-4-4-4-|-4-4-4-4-4-4-4-4-|
D|-9-9-9-9-9-9-9-9-|-5-5-5-5-5-5-5-5-|-4-4-4-4-4-4-4-4-|-4-4-4-4-4-4-4-4-|
A|-7-7-7-7-7-7-7-7-|-5-5-5-5-5-5-5-5-|-2-2-2-2-2-2-2-2-|-2-2-2-2-2-2-2-2-|
E|-----------------|-----------------|-----------------|-----------------|

"My eyes dilate reigning dreamstate"
e|-----------------|-----------------|-----------------|-----------------|
B|-----------------|-8-8-8-8-8-8-8-8-|-----------------|-----------------|
G|-9-9-9-9-9-9-9-9-|-7-7-7-7-7-7-7-7-|-4-4-4-4-4-4-4-4-|-4-4-4-4-4-4-4-4-|
D|-9-9-9-9-9-9-9-9-|-5-5-5-5-5-5-5-5-|-4-4-4-4-4-4-4-4-|-4-4-4-4-4-4-4-4-|
A|-7-7-7-7-7-7-7-7-|-5-5-5-5-5-5-5-5-|-2-2-2-2-2-2-2-2-|-2-2-2-2-2-2-2-2-|
E|-----------------|-----------------|-----------------|-----------------|

"I could give into your needs,        If we weren't such a cross breed"
e|-----------------|-----------------|-----------------|-----------------|
B|-----------------|-8-8-8-8-8-8-8-8-|-7---------------|-----------------|
G|-9-9-9-9-9-9-9-9-|-7-7-7-7-7-7-7-7-|-6---------------|-----------------|
D|-9-9-9-9-9-9-9-9-|-5-5-5-5-5-5-5-5-|-4---------------|-----------------|
A|-7-7-7-7-7-7-7-7-|-5-5-5-5-5-5-5-5-|-4---------------|-----------------|
E|-----------------|-----------------|-----------------|-----------------|

Post chorus
e|-----------------|-----------------|
B|-----------------|-----------------|
G|-4-4-4-4-4-4-4-4-|-4-4-4-4-4-4-4-4-|
D|-4-4-4-4-4-4-4-4-|-4-4-4-4-4-4-4-4-|
A|-2-2-2-2-2-2-2-2-|-2-2-2-2-2-2-2-2-|
E|-----------------|-----------------|

Verse 2
"You were made to sit up with the gods, Eternally against the odds"
e|-----------------|-----------------|-----------------|-----------------|
B|-----------------|-----------------|-----------------|-----------------|
G|-4-4-4-4-4-4-4-4-|-4-4-4-4-4-4-4-4-|-4-4-4-4-4-4-4-4-|-4-4-4-4-4-4-4-4-|
D|-4-4-4-4-4-4-4-4-|-4-4-4-4-4-4-4-4-|-4-4-4-4-4-4-4-4-|-4-4-4-4-4-4-4-4-|
A|-2-2-2-2-2-2-2-2-|-2-2-2-2-2-2-2-2-|-2-2-2-2-2-2-2-2-|-2-2-2-2-2-2-2-2-|
E|-----------------|-----------------|-----------------|-----------------|

"Down                Out"
e|-----------------|-----------------|-----------------|
B|-----------------|-----------------|-----------------|
G|-----------------|-----------------|-----------------|
D|-2-5--2-5---5----|-2-5--2-5---5----|-2-5--2-5---7----|
A|-2-5--2-5---5----|-2-5--2-5---5----|-2-5--2-5---7----|
E|-0-3--0-3---3----|-0-3--0-3---3----|-0-3--0-3---5----|

"No risk if there is no passion,       Your computers checking my ration"
e|-----------------|-----------------|-----------------|-----------------|
B|-----------------|-----------------|-----------------|-----------------|
G|-4-4-4-4-4-4-4-4-|-4-4-4-4-4-4-4-4-|-4-4-4-4-4-4-4-4-|-4-4-4-4-4-4-4-4-|
D|-4-4-4-4-4-4-4-4-|-4-4-4-4-4-4-4-4-|-4-4-4-4-4-4-4-4-|-4-4-4-4-4-4-4-4-|
A|-2-2-2-2-2-2-2-2-|-2-2-2-2-2-2-2-2-|-2-2-2-2-2-2-2-2-|-2-2-2-2-2-2-2-2-|
E|-----------------|-----------------|-----------------|-----------------|

"Down                Out"
e|-----------------|-----------------|-----------------|
B|-----------------|-----------------|-----------------|
G|-----------------|-----------------|-----------------|
D|-2-5--2-5---5----|-2-5--2-5---5----|-2-5--2-5---7----|
A|-2-5--2-5---5----|-2-5--2-5---5----|-2-5--2-5---7----|
E|-0-3--0-3---3----|-0-3--0-3---3----|-0-3--0-3---5----|

"Take heed"
e|-----------------|-----------------|
B|-----------------|-----------------|
G|-4-4-4-4-4-4-4-4-|-4-4-4-4-4-4-4-4-|
D|-4-4-4-4-4-4-4-4-|-4-4-4-4-4-4-4-4-|
A|-2-2-2-2-2-2-2-2-|-2-2-2-2-2-2-2-2-|
E|-----------------|-----------------|

Chorus 2
"You cut I bleed blood like aniseed"
e|-----------------|-----------------|-----------------|-----------------|
B|-----------------|-8-8-8-8-8-8-8-8-|-----------------|-----------------|
G|-9-9-9-9-9-9-9-9-|-7-7-7-7-7-7-7-7-|-4-4-4-4-4-4-4-4-|-4-4-4-4-4-4-4-4-|
D|-9-9-9-9-9-9-9-9-|-5-5-5-5-5-5-5-5-|-4-4-4-4-4-4-4-4-|-4-4-4-4-4-4-4-4-|
A|-7-7-7-7-7-7-7-7-|-5-5-5-5-5-5-5-5-|-2-2-2-2-2-2-2-2-|-2-2-2-2-2-2-2-2-|
E|-----------------|-----------------|-----------------|-----------------|

"My eyes dilate reigning dreamstate"
e|-----------------|-----------------|-----------------|-----------------|
B|-----------------|-8-8-8-8-8-8-8-8-|-----------------|-----------------|
G|-9-9-9-9-9-9-9-9-|-7-7-7-7-7-7-7-7-|-4-4-4-4-4-4-4-4-|-4-4-4-4-4-4-4-4-|
D|-9-9-9-9-9-9-9-9-|-5-5-5-5-5-5-5-5-|-4-4-4-4-4-4-4-4-|-4-4-4-4-4-4-4-4-|
A|-7-7-7-7-7-7-7-7-|-5-5-5-5-5-5-5-5-|-2-2-2-2-2-2-2-2-|-2-2-2-2-2-2-2-2-|
E|-----------------|-----------------|-----------------|-----------------|

"I could give into your needs,        If we weren't such a cross breed"
e|-----------------|-----------------|-----------------|-----------------|
B|-----------------|-8---------------|-7---------------|-----------------|
G|-9---------------|-7---------------|-6---------------|-----------------|
D|-9---------------|-5---------------|-4---------------|-----------------|
A|-7---------------|-5---------------|-4---------------|-----------------|
E|-----------------|-----------------|-----------------|-----------------|

Break
e|-----------------|-----------------|-----------------|-----------------|
B|-----------------|-----------------|-----------------|-----------------|
G|--------4--4-4-4-|--------4--4-4-4-|--------4--4-4-4-|-----------------|
D|---4----4--4-4-4-|---4----4--4-4-4-|---4----4--4-4-4-|-6-------4-------| x2
A|---4----2--2-2-2-|---4----2--2-2-2-|---4----2--2-2-2-|-6-------4-------|
E|-0-2-0-----------|-0-2-0-----------|-0-2-0-----------|-4-------2-------|

"You won't take me life away, You won't take my life away"
e|-0---------------|-----------------|-----------------|-----------------|
B|-0---------------|-----------------|-----------------|-----------------|
G|-1---------------|-----------------|-----------------|-----------------|
D|-2---------------|-----------------|-----------------|-----------------|
A|-2---------------|-----------------|-----------------|-----------------|
E|-0-----------(     L e t     r i n g     o u t         )---------------|

Verse 3
"Little people looking through windows, Checking out there alter egos"
e|-----------------|-----------------|-----------------|-----------------|
B|-----------------|-----------------|-----------------|-----------------|
G|-4-4-4-4-4-4-4-4-|-4-4-4-4-4-4-4-4-|-4-4-4-4-4-4-4-4-|-4-4-4-4-4-4-4-4-|
D|-4-4-4-4-4-4-4-4-|-4-4-4-4-4-4-4-4-|-4-4-4-4-4-4-4-4-|-4-4-4-4-4-4-4-4-|
A|-2-2-2-2-2-2-2-2-|-2-2-2-2-2-2-2-2-|-2-2-2-2-2-2-2-2-|-2-2-2-2-2-2-2-2-|
E|-----------------|-----------------|-----------------|-----------------|

"Down                Out"
e|-----------------|-----------------|-----------------|
B|-----------------|-----------------|-----------------|
G|-----------------|-----------------|-----------------|
D|-2-5--2-5---5----|-2-5--2-5---5----|-2-5--2-5---7----|
A|-2-5--2-5---5----|-2-5--2-5---5----|-2-5--2-5---7----|
E|-0-3--0-3---3----|-0-3--0-3---3----|-0-3--0-3---5----|

"No risk if there is no passion, Your computers checking my ration"
e|-----------------|-----------------|-----------------|-----------------|
B|-----------------|-----------------|-----------------|-----------------|
G|-4-4-4-4-4-4-4-4-|-4-4-4-4-4-4-4-4-|-4-4-4-4-4-4-4-4-|-4-4-4-4-4-4-4-4-|
D|-4-4-4-4-4-4-4-4-|-4-4-4-4-4-4-4-4-|-4-4-4-4-4-4-4-4-|-4-4-4-4-4-4-4-4-|
A|-2-2-2-2-2-2-2-2-|-2-2-2-2-2-2-2-2-|-2-2-2-2-2-2-2-2-|-2-2-2-2-2-2-2-2-|
E|-----------------|-----------------|-----------------|-----------------|

"Down                Out"
e|-----------------|-----------------|-----------------|
B|-----------------|-----------------|-----------------|
G|-----------------|-----------------|-----------------|
D|-2-5--2-5---5----|-2-5--2-5---5----|-2-5--2-5---7----|
A|-2-5--2-5---5----|-2-5--2-5---5----|-2-5--2-5---7----|
E|-0-3--0-3---3----|-0-3--0-3---3----|-0-3--0-3---5----|

"Take heed"
e|-----------------|-----------------|
B|-----------------|-----------------|
G|-4-4-4-4-4-4-4-4-|-4-4-4-4-4-4-4-4-|
D|-4-4-4-4-4-4-4-4-|-4-4-4-4-4-4-4-4-|
A|-2-2-2-2-2-2-2-2-|-2-2-2-2-2-2-2-2-|
E|-----------------|-----------------|

Outro chorus 
"You cut I bleed blood like aniseed"
e|-----------------|-----------------|-----------------|-----------------|
B|-----------------|-8-8-8-8-8-8-8-8-|-----------------|-----------------|
G|-9-9-9-9-9-9-9-9-|-7-7-7-7-7-7-7-7-|-4-4-4-4-4-4-4-4-|-4-4-4-4-4-4-4-4-|
D|-9-9-9-9-9-9-9-9-|-5-5-5-5-5-5-5-5-|-4-4-4-4-4-4-4-4-|-4-4-4-4-4-4-4-4-|
A|-7-7-7-7-7-7-7-7-|-5-5-5-5-5-5-5-5-|-2-2-2-2-2-2-2-2-|-2-2-2-2-2-2-2-2-|
E|-----------------|-----------------|-----------------|-----------------|

"My eyes dilate reigning dreamstate"
e|-----------------|-----------------|-----------------|-----------------|
B|-----------------|-8-8-8-8-8-8-8-8-|-----------------|-----------------|
G|-9-9-9-9-9-9-9-9-|-7-7-7-7-7-7-7-7-|-4-4-4-4-4-4-4-4-|-4-4-4-4-4-4-4-4-|
D|-9-9-9-9-9-9-9-9-|-5-5-5-5-5-5-5-5-|-4-4-4-4-4-4-4-4-|-4-4-4-4-4-4-4-4-|
A|-7-7-7-7-7-7-7-7-|-5-5-5-5-5-5-5-5-|-2-2-2-2-2-2-2-2-|-2-2-2-2-2-2-2-2-|
E|-----------------|-----------------|-----------------|-----------------|

"I could give into your needs,        If we weren't such a cross breed"
e|-----------------|-----------------|-----------------|-----------------|
B|-----------------|-8---------------|-----------------|-----------------|
G|-9---------------|-7---------------|( let ring out )-|-----------------|
D|-9---------------|-5---------------|-----------------|-----------------|
A|-7---------------|-5---------------|-----------------|-----------------|
E|-----------------|-----------------|-----------------|-----------------|

e|-----------------|
B|-----------------|
G|-----------------|
D|-4-3-------------|
A|-4-3-------------|
E|-2-1-------------|
__________________________________________________________________________________________________

Enjoy
Please rate and leave constructive comments/feedback
Добавлено: 23.12.2015
Другие материалы по этой песне:
  • Аккорды и текст

Страница создана 22.07.2015
http://primanota.ru/3-colours-red/pure-album-album-chords.htm
Привет, Гость.
Предлагаем пройти революционный курс по гитаре.
Подарок от PrimaNota.Ru, забирай!