PrimaNota.ru - самый крупный в мире бесплатный архив песенных текстов, аккордов, табулатур и нот


3 Alias Te - Now - таба, видео

Регистрация Запомнить меня
Войти через:  Facebook Google Twitter Vk Yandex Mail.ru

3 Alias Te - Now - таба, видео

Печатать
Просмотров: 161
3 alias Te – Now
From the EP “Between hope, fear and belief (2009)
Written by 3 alias Te
www.3alias te.com
www.myspace.com/3aliaste

Chords:
   Bb C  D
e-----------|
B--3--5--7--|
G--3--5--7--|
D--1--3--5--|
A-----------|
E-----------|


Intro I(fade in):
e--------------------------------------------------------------------------|
B-----6-6-5-5-----6-6-5-5-----6-6-5-5-----6-6-5-5-----6-6-5-5----6-6-5-5---|
G-7-7---------7-7---------5-5---------5-5---------3-3---------3-3----------|
D--------------------------------------------------------------------------|
A--------------------------------------------------------------------------|
E--------------------------------------------------------------------------|

e-------------------------|
B-----6-6-5-5-----6-6-5-5-|
G-5-5---------5-5---------|
D-------------------------|
A-------------------------|
E-------------------------|

Intro II:
Git. 1
e----------------------------------55-33-55-33-55-33-55-33-5--|
B------66-55-66-55-66-55-66-55-6------------------------------|
G-------------------------------------------------------------|
D-------------------------------------------------------------|
A-------------------------------------------------------------|
E-------------------------------------------------------------|
Git. 2:    D				   C     Bb			    	C

D		        C
you say i waste my time
       Bb				 C
and everything i do is fucking wrong
D		 C
walking out of line
        Bb
will break my neck
		C
dark days will come

D
fight me kick me give me reason

C
to give up I will believe

    Bb
in myself till my heart stops beating
C
hope dies last



Chorus(2 times)
D
now is now
never is never 
  C
i wanna life
 Bb
now or never

now or never
	C
now or never 
Intro II:
Git. 1
e----------------------------------55-33-55-33-55-33-55-33-5--|
B------66-55-66-55-66-55-66-55-6------------------------------|
G-------------------------------------------------------------|
D-------------------------------------------------------------|
A-------------------------------------------------------------|
E-------------------------------------------------------------|
Git. 2:    D				   C     Bb			    	C


D		       C
routine rules your day
Bb
everything is planed
       C
but are you happy
D	       C
your life is grey
Bb
compare it with mine
	           C
what can you see
D				     
tell me have you dug your grave yet 
C
don' t tell me that i will regret
Bb
all the things i' ve done till now
      C
it' s part of my life 


Solo Git 1.(played 2 times):
e------------------------------------|
B----6-5-----6-5-----6-5-----6-5-----|
G--5-----7-5-----7-3-----7-5-----5-7-|
D------------------------------------|
A------------------------------------|
E------------------------------------|
Solo Git. 2. Some Chords as Chorus

Song Order:
Intro I
Verse I
Chorus
Intro II
Verse II
Chorus
Solo
Chorus(2 times)

***tabbed by David S.***
Добавлено: 07.12.2013
Другие материалы по этой песне:
  • Аккорды и текст

Страница создана 07.12.2013
http://primanota.ru/3-alias-te/now-chords.htm
Привет, Гость.
Предлагаем пройти революционный курс по гитаре.
Подарок от PrimaNota.Ru, забирай!