PrimaNota.ru - самый крупный в мире бесплатный архив песенных текстов, аккордов, табулатур и нот


2tm23 - Druga Piesn Slugi Panskiego - таба, видео

Регистрация Запомнить меня
Войти через:  Facebook Google Twitter Vk Yandex Mail.ru

2tm23 - Druga Piesn Slugi Panskiego - таба, видео

Печатать
Просмотров: 116
-------------------------------------------------------------------------------
                       DRUGA PIESN SLUGI PANSKIEGO - 2tm2,3
-------------------------------------------------------------------------------
Tabbed by: brian_s
E-mail: bsremec@unseen.is                       

Tabbed form the 2006 Woodstock live performance
Tuning: DADGBe

Intro:
e|-----------------------------------------------------------------------|
B|-----------------------------------------------------------------------|
G|-----------------------------------------------------------------------|
D|---2x-2x-2x-2x-2x-2x-2x-2x-2x-2x-2x-2x-2x-2x-2x-2x-2x-2x-2x-2x-2x-2x---|
A|---2x-2x-2x-2x-2x-2x-2x-2x-2x-2x-2x-2x-2x-2x-2x-2x-2x-2x-2x-2x-2x-2x---|
D|---2x-2x-2x-2x-2x-2x-2x-2x-2x-2x-2x-2x-2x-2x-2x-2x-2x-2x-2x-2x-2x-2x---|

e|---------------------------|
B|---------------------------|
G|---------------------------|        4x 
D|---2---5-3-0---5-3-0---2---|
A|---2---5-3-0---5-3-0---2---|
D|---2---5-3-0---5-3-0---2---|

e|--------------------------|
B|--------------------------|
G|--------------------------|
D|--------------------------|
A|---5x-3x-0x----5x-3x-0x---|
D|---5x-3x-0x----5x-3x-0x---|

Verse:
e|---------------------------------------------------|          |
B|---------------------------------------------------|          |
G|---------------------------------------------------|  2x      |
D|---------------------------------------------------|          |
A|---------------------------5x-3x-0x----5x-3x-0x----|          |
D|---2x---2x-2x---2x-2x-2x---5x-3x-0x----5x-3x-0x----|          |       
                                                                |
e|----------------------------------------------|               |
B|----------------------------------------------|               |
G|----------------------------------------------|               |       2x
D|----------------------------------------------|               |
A|----------------------------------------------|               |
D|---3x---3x-3x---3x-3x----0x---0x-0x---0x-0x---|               |
                                                                |
e|---------------------------------------------------|          |
B|---------------------------------------------------|          |
G|---------------------------------------------------|          |
D|---------------------------------------------------|          |
A|---------------------------5x-3x-0x----5x-3x-0x----|          |
D|---2x---2x-2x---2x-2x-2x---5x-3x-0x----5x-3x-0x----|          |

Post verse:
e|---------------------------|
B|---------------------------|
G|---------------------------|        4x 
D|---2---5-3-0---5-3-0---2---|
A|---2---5-3-0---5-3-0---2---|
D|---2---5-3-0---5-3-0---2---|

e|--------------------------|
B|--------------------------|
G|--------------------------|
D|--------------------------|
A|---5x-3x-0x----5x-3x-0x---|
D|---5x-3x-0x----5x-3x-0x---|

Verse:
e|---------------------------------------------------|          |
B|---------------------------------------------------|          |
G|---------------------------------------------------|  2x      |
D|---------------------------------------------------|          |
A|---------------------------5x-3x-0x----5x-3x-0x----|          |
D|---2x---2x-2x---2x-2x-2x---5x-3x-0x----5x-3x-0x----|          |       
                                                                |
e|----------------------------------------------|               |
B|----------------------------------------------|               |
G|----------------------------------------------|               |       2x
D|----------------------------------------------|               |
A|----------------------------------------------|               |
D|---3x---3x-3x---3x-3x----0x---0x-0x---0x-0x---|               |
                                                                |
e|---------------------------------------------------|          |
B|---------------------------------------------------|          |
G|---------------------------------------------------|          |
D|---------------------------------------------------|          |
A|---------------------------5x-3x-0x----5x-3x-0x----|          |
D|---2x---2x-2x---2x-2x-2x---5x-3x-0x----5x-3x-0x----|          |


Chorus:
e|-------------------------------------------------------|
B|-------------------------------------------------------|
G|-------------------------------------------------------|      3x
D|---6-6-6-6-6-6--3-3-3-3-3-3--5-5-5-5-5-5-5-5-5-5-5-5---|
A|---6-6-6-6-6-6--3-3-3-3-3-3--5-5-5-5-5-5-5-5-5-5-5-5---|
D|---6-6-6-6-6-6--3-3-3-3-3-3--5-5-5-5-5-5-5-5-5-5-5-5---|

e|--------------------------------------------------------------------|
B|--------------------------------------------------------------------|
G|--------------------------------------------------------------------| 
D|---6-6-6-6-6-6--3-3-3-3-3-3--2---2x-2x-2x-2x-2x-2x-2x-2x-2x-2x--2---|
A|---6-6-6-6-6-6--3-3-3-3-3-3--2---2x-2x-2x-2x-2x-2x-2x-2x-2x-2x--2---|
D|---6-6-6-6-6-6--3-3-3-3-3-3--2---2x-2x-2x-2x-2x-2x-2x-2x-2x-2x--2---|

e|--------------------------|
B|--------------------------|
G|--------------------------|
D|--------------------------|
A|---5x-3x-0x----5x-3x-0x---|
D|---5x-3x-0x----5x-3x-0x---|


Solo:
(Rhythm guitar plays the verse section.)
e|-------------------------------|
B|-------------------------------|
G|-------------------------------|
D|---/6--6~6~6~6~~-6h7-6h7-6\3---|
A|-------------------------------|
D|-------------------------------|

e|-------------------------------|
B|-------------------------------|
G|-------------------------------|
D|---/6--6~6~6~6~~-6h7-6h7-6h7---|
A|-------------------------------|
D|-------------------------------|

e|------------------------------------------|
B|------------------------------------------|
G|------------------------------------------|
D|---/7--7~7~7~7~~-/9-9b-9b-9b-9b--9br7-6---|
A|------------------------------------------|
D|------------------------------------------|

e|----------------------------------------|
B|----------------------------------------|
G|----------------------------------------|
D|---/6--6~6~6~6~~-6h7--/9--9b-9b-9b-9b---|
A|----------------------------------------|
D|----------------------------------------|

e|-------------------------------------------------------|
B|-------------------------------------------------------|
G|-------------------------------------------------------|
D|---7h9h10--10~10~10~10~10~~--9h10h12--12~12~12~12~12~~-|
A|-------------------------------------------------------|
D|-------------------------------------------------------|

e|----------------------------------------|
B|----------------------------------------|
G|----------------------------------------|
D|---10h12h14---14~14~14~14~14~14~14~14~~-|
A|----------------------------------------|
D|----------------------------------------|

Chorus:
e|-------------------------------------------------------|
B|-------------------------------------------------------|
G|-------------------------------------------------------|      3x
D|---6-6-6-6-6-6--3-3-3-3-3-3--5-5-5-5-5-5-5-5-5-5-5-5---|
A|---6-6-6-6-6-6--3-3-3-3-3-3--5-5-5-5-5-5-5-5-5-5-5-5---|
D|---6-6-6-6-6-6--3-3-3-3-3-3--5-5-5-5-5-5-5-5-5-5-5-5---|

e|-------------------------------------------------------|
B|-------------------------------------------------------|
G|-------------------------------------------------------|      
D|---6-6-6-6-6-6--3-3-3-3-3-3--2-2-2-2-2-2-2-2-2-2-2-2---|
A|---6-6-6-6-6-6--3-3-3-3-3-3--2-2-2-2-2-2-2-2-2-2-2-2---|
D|---6-6-6-6-6-6--3-3-3-3-3-3--2-2-2-2-2-2-2-2-2-2-2-2---|

e|-------------------------------------------------------|
B|-------------------------------------------------------|
G|-------------------------------------------------------|      3x
D|---6-6-6-6-6-6--3-3-3-3-3-3--5-5-5-5-5-5-5-5-5-5-5-5---|
A|---6-6-6-6-6-6--3-3-3-3-3-3--5-5-5-5-5-5-5-5-5-5-5-5---|
D|---6-6-6-6-6-6--3-3-3-3-3-3--5-5-5-5-5-5-5-5-5-5-5-5---|

e|--------------------------------------|
B|--------------------------------------|
G|--------------------------------------|       
D|---6-6-6-6-6-6--3-3-3-3-3-3--2--------|
A|---6-6-6-6-6-6--3-3-3-3-3-3--2--------|
D|---6-6-6-6-6-6--3-3-3-3-3-3--2--------|


************************************

| /   slide up
| \   slide down
| h   hammer-on
| ~   vibrato
| x   Mute note
| b   Bend
| pb  Pre-bend
| br  Bend release

************************************

Добавлено: 02.08.2015
Вам также может быть интересно:
Другие материалы по этой песне:
  • Аккорды и текст

Страница создана 02.08.2015
http://primanota.ru/2tm23/druga-piesn-slugi-panskiego-chords.htm
Привет, Гость.
Предлагаем пройти революционный курс по гитаре.
Подарок от PrimaNota.Ru, забирай!