PrimaNota.ru - самый крупный в мире бесплатный архив песенных текстов, аккордов, табулатур и нот


2nd Season - Прелюдия - таба, видео

Регистрация Запомнить меня
Войти через:  Facebook Google Twitter Vk Yandex Mail.ru

2nd Season - Прелюдия - таба, видео

Печатать
Просмотров: 287
-------------------------------------------------------------------------------
                             ПРЕЛЮДИЯ - 2nd Season
-------------------------------------------------------------------------------
Tabbed by: 5tepka
Tuning: Standard

Guitar 1 (Melody):
e|--------------------------------------3-----3-----3-----3-----3-----3-----|
B|--3-5----3-5---5-----3-5---3-5---5------5-----5-----------5-----5---------|
G|------5------5-----------5-----5----------5-----5-----------5-----5-------|   x4
D|--------------------------------------------------------------------------|    
A|3------------------3----------------3-----------------3-------------------|
E|--------------------------------------------------------------------------|

e|--------------------------------------3-----3------3-----3-----3----------|
B|--3-5----3-5---5-----3-5---3-5---5-------5-----5-----------5--------------|
G|------5------5-----------5-----5-----------5-----5-----------5------------|
D|--------------------------------------------------------------------------|    
A|3------------------3----------------3------------------3------------------|
E|--------------------------------------------------------------------------|
Добавлено: 28.04.2016
Вам также может быть интересно:
Другие материалы по этой песне:
  • Аккорды и текст

Страница создана 28.04.2016
http://primanota.ru/2nd-season/prelyudiya-chords.htm
Привет, Гость.
Предлагаем пройти революционный курс по гитаре.
Подарок от PrimaNota.Ru, забирай!