PrimaNota.ru - самый крупный в мире бесплатный архив песенных текстов, аккордов, табулатур и нот


28 Days - Goodbye - таба, видео

Регистрация Запомнить меня
Войти через:  Facebook Google Twitter Vk Yandex Mail.ru

28 Days - Goodbye - таба, видео

Печатать
Просмотров: 246
Song: Goodbye
Written by: 28 days
Album: upstyledown
Guitars: 1, with distortion
Tuning: standard (EADGBE)
Tabbed by: Milo
Notes: Sick song, enjoy:
 Legend:
	 ~  sustain
	 /  slide up
	 \  slide down
	(3) barely audible "ghost" note

Repeat this intro part twice
  ------------------------------|
  ------------------------------|
  ------------------------------|
  --3-3-3-3-3-3/5/7-7--10-10\5--|
  --3-3-3-3-3-3/5/7-7--10-10\5--|
  --1-0-1-1-0-1/3/5-5--8--8-\3--|

  --------------------|-15-15-----|
  --------------------|-------15--|
  --------------------|-----------|
  --3-3-3-3-3-3/5/7-7-|-----------|
  --3-3-3-3-3-3/5/7-7-|-----------|
  --1-0-1-1-0-1/3/5-5-|-----------|

on the second time through do not play the -15-15----| bit
                                           -------15-|

Then this second little part of the intro is played once
 ----------------------------------|
 ----------------------------------|
 --2~~-----------2~~---------------|
 --2~~(3)-(0)----2~~---------------|
 --0~~-------(0)-0~~---------------|
 --------------------fat-pickslide-|
make the pickslide last by going most of the way up the fret-board (in the direction of the tuning-pegs)

Now the first verse starts (with vocals)
 ---------------------------------------|
 ---------------------------------------|
 ------------------10-10-10-10-5-5-5-5--|
 --3-3-3-3-7-7-7-7-10-10-10-10-5-5-5-5--| four times
 --3-3-3-3-7-7-7-7-8--8--8--8--3-3-3-3--|
 --1-1-1-1-5-5-5-5----------------------|
      Thought I left you all behind,
           Put you all out of my mind...

Then this part is played through the prechorus
 ---------------------------|
 ---------------------------|
 ---------------------------|
 --3-5-3-3-5p3-3-5-5-7-5-3--| about six times (with slight variations)
 ---------------------------|
 ---------------------------|
    And as I walked away...

Then this for the chorus (same as verse, but second chorus is different)
 ---------------------------------------|
 ---------------------------------------|
 ------------------10-10-10-10-5-5-5-5--|
 --3-3-3-3-7-7-7-7-10-10-10-10-5-5-5-5--| two times
 --3-3-3-3-7-7-7-7-8--8--8--8--3-3-3-3--|
 --1-1-1-1-5-5-5-5----------------------|
     Respect is what you lack...

Then again throughout the next verse
 ---------------------------------------|
 ---------------------------------------|
 ------------------10-10-10-10-5-5-5-5--|
 --3-3-3-3-7-7-7-7-10-10-10-10-5-5-5-5--| four times
 --3-3-3-3-7-7-7-7-8--8--8--8--3-3-3-3--|
 --1-1-1-1-5-5-5-5----------------------|
    Now you are just the same,
       No you haven't changed a bit...

And back to this prechorus
 ---------------------------|
 ---------------------------|
 ---------------------------|
 --3-5-3-3-5p3-3-5-5-7-5-3--|
 ---------------------------|
 ---------------------------|
    And as I walked away...

Then this chorus (like the intro)repeat twice
  ------------------------------|
  ------------------------------|
  ------------------------------|
  --3-3-3-3-3-3/5/7-7--10-10\5--|
  --3-3-3-3-3-3/5/7-7--10-10\5--|
  --1-0-1-1-0-1/3/5-5--8--8-\3--|
Respect is what you lack

  ---------------------15-15-----|
  ---------------------------15--|
  -------------------------------|
  --3-3-3-3-3-3/5/7-7------------|
  --3-3-3-3-3-3/5/7-7------------|
  --1-0-1-1-0-1/3/5-5------------|
Respect is what you lack...

then this solo part a couple of times through changing a bit each time
 -----------------------------------------------------------------|
 -----------------------------------------------------------------|
 ----------------2-3-2-----------2-3-2-----------2-3-2---2-3-2----|
 --3-3-3-3-3-3-3-------3-3-3-3-3-------3-3-3-3-3-------3-------3--|
 -----------------------------------------------------------------|
 -----------------------------------------------------------------|
       Goodbye          again

and it eventually ends up like this
 -----------------------------------------------------------------|
 -----------------------------------------------------------------|
 ----------------0---------------2---------------2-2-2-2-3-3-3-3--|
 --3-3-3-3-3-3-3---3-3-3-3-3-3-3---3-3-3-3-3-3-3------------------|
 -----------------------------------------------------------------|
 -----------------------------------------------------------------|

Then we have the prechorus part we should be familiar with by now
 ---------------------------|
 ---------------------------|
 ---------------------------|
 --3-5-3-3-5p3-3-5-5-7-5-3--|
 ---------------------------|
 ---------------------------|
    And as I walked away...

And the chorus
  ------------------------------|
  ------------------------------|
  ------------------------------|
  --3-3-3-3-3-3/5/7-7--10-10\5--|
  --3-3-3-3-3-3/5/7-7--10-10\5--|
  --1-0-1-1-0-1/3/5-5--8--8-\3--|
Respect is what you lack

  ---------------------15-15-----|
  ---------------------------15--|
  -------------------------------|
  --3-3-3-3-3-3/5/7-7------------|
  --3-3-3-3-3-3/5/7-7------------|
  --1-0-1-1-0-1/3/5-5------------|
Respect is what you lack...

And last but not least the little solo bit
 -----------------------------------------------------------------|
 -----------------------------------------------------------------|
 ----------------2-3-2-----------2-3-2-----------2-3-2---2-3-2----|
 --3-3-3-3-3-3-3-------3-3-3-3-3-------3-3-3-3-3-------3-------3--|
 -----------------------------------------------------------------|
 -----------------------------------------------------------------|
       Goodbye          again                   we both know that it

 -----------|
 --(6)------|
 ------(5)--|
 -----------| about five times getting slower and softer each time
 -----------|
 -----------|
was time to go

I'll show you the order of things even though I typed it in order:

Intro x2
pre-verse (second intro) x1
verse x4
prechorus x6
chorus 1 x2
verse x4
prechorus x6
chorus 2 x2
solo part repeated and changed into
second solo part
prechorus x6
chorus 2 x2
solo part
Добавлено: 03.07.2012
Другие материалы по этой песне:
  • Аккорды и текст

Страница создана 03.07.2012
http://primanota.ru/28-days/goodbye-chords.htm
Привет, Гость.
Предлагаем пройти революционный курс по гитаре.
Подарок от PrimaNota.Ru, забирай!