PrimaNota.ru - самый крупный в мире бесплатный архив песенных текстов, аккордов, табулатур и нот


24 Gone - Girl Of Colours - таба, видео

Регистрация Запомнить меня
Войти через:  Facebook Google Twitter Vk Yandex Mail.ru

24 Gone - Girl Of Colours - таба, видео

Печатать
Просмотров: 136
-----------------------------------------------------------------------------
                             GIRL OF COLOURS - 24 Gone
-----------------------------------------------------------------------------
Very cool 80s alternative song that I've enjoyed for 20+ yrs but just now 
decided to try to figure it out Pretty easy three string picking version here 
Picking and timing are obviously easier when you try to play along to the song 
You cant find it on iTunes but you can find it on YouTube Lyrics are out there 
too but theres a few mystery words that I havent figured out yet
Give it a try Good luck and have fun And please email me if you see any 
mistakes or have a better version Thanks ps My first post so please be gentle
Tabbed by: begskeller
E-mail: begskeller@aol.com

Tuning Standard
Intro
e|-----0---0—--0---0----0---0---0---0----0---0---0---0—---0---0---0---0-----|
B|----0-0-0-0-0-0-0-0--0-0-0-0-0-0-0-0--0-0-0-0—0-0—0-0--0-0-0-0-0-0-0-0----|
G|---2---2—--2---2----1---1---1---1----2---2---2---2----1---1---1---1-------|
D|--------------------------------------------------------------------------|
A|--------------------------------------------------------------------------|
E|--------------------------------------------------------------------------|
                                        
e|----0---0---0---0----0---0---0---0-----0---0---0---0----0---0—--0---0—----|
B|---0-0-0-0-0-0-0-0--0-0-0-0-0-0-0-0---0-0-0-0-0-0-0-0--0-0-0—0-0-0-0-0----|
G|--6---6---6---6----4---4---4---4-----8---9---8---9----1---1—--1---1-------|
D|--------------------------------------------------------------------------|
A|--------------------------------------------------------------------------|
E|--------------------------------------------------------------------------|
Verse1
 I sit hear as the rain blows into the sky Its just a change of season but I dont know why
e|----0---0---0---0----0---0---0---0----0---0---0---0----0---0—--0—--0-—----|
B|---0-0-0-0-0-0-0-0--0-0-0-0-0-0-0-0--0-0-0-0-0-0-0-0—-0-0-0-0-0-0—0-0-----|
G|--2---2---2---2----1---1---1---1----2---2---2---2----1---1---1---1—-------|
D|--------------------------------------------------------------------------|
A|--------------------------------------------------------------------------|
E|--------------------------------------------------------------------------|
 I wait and watch the sand turn by the tide Im seeing not believing but its by design
e|----0---0---0---0----0---0---0---0----0---0---0---0----0---0—--0—--0-—----|
B|---0-0-0-0-0-0-0-0--0-0-0-0-0-0-0-0--0-0-0-0-0-0-0-0—-0-0-0-0-0-0—0-0-----|
G|--2---2---2---2----1---1---1---1----2---2---2---2----1---1---1---1—-------|
D|--------------------------------------------------------------------------|
A|--------------------------------------------------------------------------|
E|--------------------------------------------------------------------------|
               All I find                    In my eyes
e|----0---0---0---0----0---0---0---0-----0---0---0---0----0---0—--0---0—----|
B|---0-0-0-0-0-0-0-0--0-0-0-0-0-0-0-0---0-0-0-0-0-0-0-0--0-0-0—0-0-0-0-0----|
G|--6---6---6---6----4---4---4---4-----8---9---8---9----8---9—--8---9-------|
D|--------------------------------------------------------------------------|
A|--------------------------------------------------------------------------|
E|--------------------------------------------------------------------------|
                  All I find               In my eyes
e|----0---0---0---0----0---0---0---0-----0---0---0---0----0---0---0---0—----|
B|---0-0-0-0-0-0-0-0--0-0-0-0-0-0-0-0---0-0-0-0-0-0-0-0--0-0-0-0-0-0-0-0----|
G|--6---6---6---6----4---4---4---4-----8---9---8---9----1---1---1---1-------|
D|--------------------------------------------------------------------------|
A|--------------------------------------------------------------------------|
E|--------------------------------------------------------------------------|


Verse2
Its just the way I hold you as time goes by   Well all I see is only a hole in the sky
e|----0---0---0---0----0---0---0---0----0---0---0---0----0---0—--0—--0-—----|
B|---0-0-0-0-0-0-0-0--0-0-0-0-0-0-0-0--0-0-0-0-0-0-0-0—-0-0-0-0-0-0—0-0-----|
G|--2---2---2---2----1---1---1---1----2---2---2---2----1---1---1---1—-------|
D|--------------------------------------------------------------------------|
A|--------------------------------------------------------------------------|
E|--------------------------------------------------------------------------|
 Its happening above you while Im alive Its just the way you show me that its all Its
e|----0---0---0---0----0---0---0---0----0---0---0---0----0---0—--0—--0-—----|
B|---0-0-0-0-0-0-0-0--0-0-0-0-0-0-0-0--0-0-0-0-0-0-0-0—-0-0-0-0-0-0—0-0-----|
G|--2---2---2---2----1---1---1---1----2---2---2---2----1---1---1---1—-------|
D|--------------------------------------------------------------------------|
A|--------------------------------------------------------------------------|
E|--------------------------------------------------------------------------|
all I ho               o o ope           I still keep hangin on to be your rain and I
e|----0---0---0---0----0---0---0---0-----0---0---0---0----0---0—--0---0—----|
B|---0-0-0-0-0-0-0-0--0-0-0-0-0-0-0-0---0-0-0-0-0-0-0-0--0-0-0—0-0-0-0-0----|
G|--6---6---6---6----4---4---4---4-----8---9---8---9----8---9—--8---9-------|
D|--------------------------------------------------------------------------|
A|--------------------------------------------------------------------------|
E|--------------------------------------------------------------------------|
 and I ho             o o ope                 Girl of Colours
e|----0---0---0---0----0---0---0---0-----0---0---0---0------0---0---0---0-—-|
B|---0-0-0-0-0-0-0-0--0-0-0-0-0-0-0-0---0-0-0-0-0-0-0-0----0-0-0-0-0-0-0-0--|
G|--6---6---6---6----4---4---4---4-----8---9---8---9------1---1---1---1-----|
D|--------------------------------------------------------------------------|
A|--------------------------------------------------------------------------|
E|--------------------------------------------------------------------------|
REPEAT INTRO
Verse3
 I listen to the wind blow into the sky Another change of season but I don't know why
e|----0---0---0---0----0---0---0---0----0---0---0---0----0---0—--0—--0-—----|
B|---0-0-0-0-0-0-0-0--0-0-0-0-0-0-0-0--0-0-0-0-0-0-0-0—-0-0-0-0-0-0—0-0-----|
G|--2---2---2---2----1---1---1---1----2---2---2---2----1---1---1---1—-------|
D|--------------------------------------------------------------------------|
A|--------------------------------------------------------------------------|
E|--------------------------------------------------------------------------|
I sit and watch the sun return the night Its all I have to give you and its all its all I 
e|----0---0---0---0----0---0---0---0----0---0---0---0----0---0—--0—--0-—----|
B|---0-0-0-0-0-0-0-0--0-0-0-0-0-0-0-0--0-0-0-0-0-0-0-0—-0-0-0-0-0-0—0-0-----|
G|--2---2---2---2----1---1---1---1----2---2---2---2----1---1---1---1—-------|
D|--------------------------------------------------------------------------|
A|--------------------------------------------------------------------------|
E|--------------------------------------------------------------------------|
      ho              o o ope        I still keep hangin on to be your rain and I
e|----0---0---0---0----0---0---0---0-----0---0---0---0----0---0—--0---0—----|
B|---0-0-0-0-0-0-0-0--0-0-0-0-0-0-0-0---0-0-0-0-0-0-0-0--0-0-0—0-0-0-0-0----|
G|--6---6---6---6----4---4---4---4-----8---9---8---9----8---9—--8---9-------|
D|--------------------------------------------------------------------------|
A|--------------------------------------------------------------------------|
E|--------------------------------------------------------------------------|
And I ho                o o ope        I still keep hangin on I still keep hangin on
e|----0---0---0---0----0---0---0---0-----0---0---0---0----0---0—--0---0—----|
B|---0-0-0-0-0-0-0-0--0-0-0-0-0-0-0-0---0-0-0-0-0-0-0-0--0-0-0—0-0-0-0-0----|
G|--6---6---6---6----4---4---4---4-----8---9---8---9----8---9—--8---9-------|
D|--------------------------------------------------------------------------|
A|--------------------------------------------------------------------------|
E|--------------------------------------------------------------------------|

                                        
To find my ho            o o ope           Still I try and still I try to find my        
e|----0---0---0---0----0---0---0---0-----0---0---0---0----0---0—--0---0—----|
B|---0-0-0-0-0-0-0-0--0-0-0-0-0-0-0-0---0-0-0-0-0-0-0-0--0-0-0—0-0-0-0-0----|
G|--6---6---6---6----4---4---4---4-----8---9---8---9----8---9—--8---9-------|
D|--------------------------------------------------------------------------|
A|--------------------------------------------------------------------------|
E|--------------------------------------------------------------------------|

   ho                       o o ope     Girl of Colours  Girl of Colours        
e|----0---0---0---0----0---0---0---0-----0---0---0---0-----------------—----|
B|---0-0-0-0-0-0-0-0--0-0-0-0-0-0-0-0---0-0-0-0-0-0-0-0---------------------|
G|--6---6---6---6----4---4---4---4-----8---9---8---9------------------------|
D|--------------------------------------------------------------------------|
A|--------------------------------------------------------------------------|
E|--------------------------------------------------------------------------|

e|-----0---0—--0---0----0---0---0---0----0---0---0---0—---0---0---0---0---0-|
B|----0-0-0-0-0-0-0-0--0-0-0-0-0-0-0-0--0-0-0-0—0-0—0-0--0-0-0-0-0-0-0-0--0-|
G|---1---1—--1---1----2---2---2---2----1---1---1---1----2---2---2---2-----1-|
D|--------------------------------------------------------------------------|
A|--------------------------------------------------------------------------|
E|--------------------------------------------------------------------------|


************************************

| /   slide up
| \   slide down
| h   hammer-on
| p   pull-off
| ~   vibrato
| +   harmonic
| x   Mute note
| b   Bend
| pb  Pre-bend
| br  Bend release
| pbr Pre-bend release
| brb Bend release bend
http://www.youtube.com/watch?v=y22LsWe5b2w
http://www.artistdirect.com/artist/bio/24-gone/503934
Добавлено: 30.07.2013
Другие материалы по этой песне:
  • Аккорды и текст

Страница создана 30.07.2013
http://primanota.ru/24-gone/girl-of-colours-chords.htm
Привет, Гость.
Предлагаем пройти революционный курс по гитаре.
Подарок от PrimaNota.Ru, забирай!