PrimaNota.ru - самый крупный в мире бесплатный архив песенных текстов, аккордов, табулатур и нот


24-7 Spyz - Stuntman - бас-таба, видео

Регистрация Запомнить меня
Войти через:  Facebook Google Twitter Vk Yandex Mail.ru

24-7 Spyz - Stuntman - бас-таба, видео

Печатать
Просмотров: 181
Tabbed by: Jay
explorer57@rocketmail.com

Some parts aren't very accurate but i'm sure you can work on it more if you
listen to the song. Please comment corrections and segments if you
feel they  need altering, thanks and enjoy!


Intro:
G|-------------------------------------------------------------|
D|-------------------------------------------------------------|
A|--6-5-4-----6-5-9----6-5-4---6-5-9----9/20-------------------|
E|-------------------------------------------------------------|

chorus:
G|-------------------------------------------------------------| x4
D|-------------------------------------------------------------|
A|------4-4-5-5-6------------4-4---2---2-----------------------|
E|--6-6-----------4----6-6-6------x---x------------------------|

verse:
G|-------------------------------------------------------------|x4
D|-------------------------------------------------------------|
A|----------4h6p4----------4h6p4----6p4---4h5p4------------2---|
E|--4-6-4-6-------4-6-4-6---------4-----6-------6p4-6p4-6------|

Repeat Chorus

Repeat Verse

Repeat Chorus

Bridge:
Haven't worked it out yet although if anyone wants to give it a go
it bases around D.

Solo:
G|----------------------------------------------------|x4
D|----------------------------------------------------|
A|-----2-2-3-3-4-5------2-3-2h4p2---2h4p2-------------|
E|---4---------------4------------4-------4-----------|

Break:
G|----------------------------|
D|----------------------------|
A|---6--5--9------------------|
E|----------------------------|

Repeat Verse x8 (same riff 8 times)

After solo: fill inbetween each three notes with random 
notes from g sharp pentatonic played fast
G|----------------------------------|---------------------------|
D|----------------------------------|---------------------------|
A|---6-5-4---6-5-4---6-5-4----6-5-4-|---6-5--9------------------|
E|----------------------------------|---------------------------|

Repeat Verse with slight variation x8
Добавлено: 02.11.2013
Другие материалы по этой песне:
  • Аккорды и текст

Страница создана 02.11.2013
http://primanota.ru/24-7-spyz/stuntman-chords.htm
Привет, Гость.
Предлагаем пройти революционный курс по гитаре.
Подарок от PrimaNota.Ru, забирай!