PrimaNota.ru - самый крупный в мире бесплатный архив песенных текстов, аккордов, табулатур и нот


2 Skinnee Js - 3 Minutes - таба, видео

Регистрация Запомнить меня
Войти через:  Facebook Google Twitter Vk Yandex Mail.ru

2 Skinnee Js - 3 Minutes - таба, видео

Печатать
Просмотров: 204
Уроки эстрадного вокала в Санкт-Петербурге
*** The following tab is the result of my own work and
listening to the sing ad nauseum ***

I got sick of waiting for someone else to hammer out some
Skinnee J's, so I'll take a stab at it...

Artist: 2 Skinnee J's
Song: 3 Minutes
Album: Volumizer

/ = slide up
\ = slide down
h = hammer on
p = pull off

Intro/1st verse:

e--------------------------------
b----------4/8-----4/9-----4\3--- riff x1
g----5---------------------------
d--------------------------------
a--------------------------------
E--------------------------------

Chorus (x3 - no guitar on last line of chorus):


   C5                            B5
e--------------------------------------------
b--------------------------------------------
g--5--5-5---5----5------4--4-4---4----4-----
d--5--5-5---5----5------4--4-4---4----4-----
a--3--3-3---3----3------2--2-2---2----2-----
E--------------------------------------------

2nd verse (I'm playing an acoustic, so the wah-wah part
doesn't translate so well, but the closest I could come up is
this...):

Guitar 1 (w/ wah pedal - play around with this one)
e---------------------------
b---------------------------
g---------------------------
d---------------------------
a-----2---2-----3(bend)---- continuous until next chorus
E---3---3-----3------------

Guitar 2 (comes in after 6 times through above riff):

     palm muted------------>   
e-----------------------------            
b-----------------------------
g-----------------------------  
d-----------------------------
a-----------------5h6p5h6----  riff x4
E---3-------3h4---------------

e-----------------------------            
b-----------------------------
g-----------------7h8p7h8----  riff x4
d---5-------5h6---------------
a-----------------------------
E-----------------------------


Chorus

3rd Verse (guitar 2 part from above, each riff x2 this time)

Chorus

Solo w/ creepy music (bass line arr. for guitar):

G-----------------------------
D-----------------------------
A------3---2---5--------------
E--1---------------5-------4--   riff x2

4th Verse:

   C5       (w/ wah pedal)                     
e------------------------
b------------------------
g------------------------
d--10--10---10/11-------
a--10--10---10/11-------
E--8---8------8/9p0-----  riff x8 --> then...


Chorus variation/outro:

  (w/ heavy distortion)
e--------------------------------
b--------------------------------
g--------------------------------
d--------------------------------
a--------------------------------
E--1-------4/8----4/9-----4/3--- repeat forever until fade out


- Jeff

p.s. Corrections/additions, etc. welcome. My guitar may be out
of tune.
     
Добавлено: 03.09.2013
Вам также может быть интересно:
Другие материалы по этой песне:
  • Аккорды и текст

Страница создана 03.09.2013
http://primanota.ru/2-skinnee-js/3-minutes-chords.htm
Привет, Гость.
Предлагаем пройти революционный курс по гитаре.
Подарок от PrimaNota.Ru, забирай!