PrimaNota.ru - самый крупный в мире бесплатный архив песенных текстов, аккордов, табулатур и нот


2 Minutos - Vomito De Bar - таба, видео

Регистрация Запомнить меня
Войти через:  Facebook Google Twitter Vk Yandex Mail.ru

2 Minutos - Vomito De Bar - таба, видео

Печатать
Просмотров: 88
  Intro                                    x2  # = Las veces necesarias 
G]-------------------------------------------
D]-------------------------------------------
A]-1---3--1-3--------------------------------
E]---1--------1------------------------------

  Verso1                                    x4
G]-------------------------------------------
D]-------------------------------------------
A]-1#--3#----1#--3#--------------------------
E]--------1#--------1#-----------------------

  Puente                            x2
G]-------------------------------------------
D]-------------------------------------------
A]-1---3--1-3--------------------------------
E]---1--------1------------------------------

  Verso2                                    x4
G]-------------------------------------------
D]-------------------------------------------
A]-1#--3#----1#--3#--------------------------
E]--------1#--------1#-----------------------

  Puente                            x2
G]-------------------------------------------
D]-------------------------------------------
A]-1---3--1-3--------------------------------
E]---1--------1------------------------------

  Coro                              x6
G]-------------------------------------------
D]-------------------------------------------
A]-1-3---------------------------------------
E]-----5-6
Добавлено: 04.06.2016
Другие материалы по этой песне:
  • Аккорды и текст

Страница создана 04.06.2016
http://primanota.ru/2-minutos/vomito-de-bar-chords.htm
Привет, Гость.
Предлагаем пройти революционный курс по гитаре.
Подарок от PrimaNota.Ru, забирай!