PrimaNota.ru - самый крупный в мире бесплатный архив песенных текстов, аккордов, табулатур и нот


2 Minutos - Un Sueño - аккорды и текст, видео

Регистрация Запомнить меня
Войти через:  Facebook Google Twitter Vk Yandex Mail.ru

2 Minutos - Un Sueño - аккорды и текст, видео

Печатать
Просмотров: 31
Un Sueño
2 Minutos
INTRO: G5 E5 A5 C5 D5 x2

e|-------------------------------------------------------------------|
B|-------------------------------------------------------------------|
G|-------------------------------------------------------------------|
D|--5~-4-5-7-5-4-5~-4-5-7-5-4-------4-5-7-5-4--10-9-7--7-9-7-5-7-5~--|
A|----------------------------5-3~-----------------------------------|
E|-------------------------------------------------------------------|


e|-------------------------------------------------------------------|
B|-------------------------------------------------------------------|
G|-------------------------------------------------------------------|
D|--4-5-7-5-4--------4-5-7-5-4---------------------------------------|
A|------------5-6-7~-----------5-3h5-3~--/10-9-7-5-4-5-7-------------|
E|-------------------------------------------------------------------|


 G5       E5
Desperte una mañana
    A5                 C5  D5
con una sonrisa en mi caaara
   G5    E5
y busque un papel
  A5               C5 D5
para retratarte en eeeeel
 G5          E5
solo se que te bese,
   A5                  C5 D5
en un mar profundo y azuuuul
 G5   A5     C5          D5
Solo fue un sueño   un sueño
      E5          D5         C5
Nada mas    nada mas    nada mas
       A5     G5      D5
Nada maaaas  aaas   aaaas!

SOLO: E5  D5  C5 x3    A5  C5  D5

 INTRO

 G5       E5
Desperte una mañana
    A5                 C5  D5
con una sonrisa en mi caaara
   G5    E5
y busque un papel
  A5               C5 D5
para retratarte en eeeeel
 G5          E5
solo se que te bese,
   A5                  C5 D5
en un mar profundo y azuuuul
 G5   A5     C5          D5
Solo fue un sueño   un sueño
      E5          D5         C5
Nada mas    nada mas    nada mas
       A5     G5      D5
Nada maaaas  aaas   aaaas!
Добавлено: 23.05.2016
Другие материалы по этой песне:
  • Аккорды и текст

Страница создана 23.05.2016
http://primanota.ru/2-minutos/un-sueno-chords.htm
Привет, Гость.
Предлагаем пройти революционный курс по гитаре.
Подарок от PrimaNota.Ru, забирай!