PrimaNota.ru - самый крупный в мире бесплатный архив песенных текстов, аккордов, табулатур и нот


2 Minutos - Metal Marciano Rojo - таба, видео

Регистрация Запомнить меня
Войти через:  Facebook Google Twitter Vk Yandex Mail.ru

2 Minutos - Metal Marciano Rojo - таба, видео

Печатать
Просмотров: 52
Para que suene mejor deben tocar los acordes B5 y E5
de la siguiente manera:

 B5            E5
e----         e----
B----         B----
G----         G--9-
D--9-         D--9-
A--9-         A--7-
E--7-         E----

Intro
e----------------------------------------------------------------
B----------------------------------------------------------------
G----------------------------------------------------------------
D--------9-7-6------------9-7-6------------9-7-6-7-6------9/11-9-
A--7-9-7-------7----7-9-7-------7----7-9-7------------9-7--------
E----------------------------------------------------------------

e----------------------------------------------------------------
B----------------------------------------------------------------
G----------------------------------------------------------------
D--------9-7-6------------9-7-6------------9-7-6-7-6-------------
A--7-9-7-------7----7-9-7-------7----7-9-7------------9-7--------
E---------------------------------------------------------9-7----

E5
Una noche en san miguel
C#5
y un regalo para vos
G#5     A5       B5
un poco bastante inusual

E5                C#5
Mi bolcillo negro y una sola ambicion
G#5         A5   B5
un caramelo solo para vos

E5             C#5
Unos farolazos me encandilaron
G#5   A5     B5
y   me atraparon

E5    C#5         A5
Niña  de cabellos Rojos
E5        C#5        A5
Niña niña me robaste el corazon
E5    C#5         A5
niña  de cabellos Rojos
E5        C#5        A5
niña niña devolveme el corazon

G#5 A5 B5 E5
C#5 A5 E5 B5 x2
B5 Mute


E5
Una noche en san miguel
C#5
y un regalo para vos
G#5     A5       B5
un poco bastante inusual

E5               C#5
Terciopelo negro y una sola ambicion
      G#5      A5        B5
de un solo caramelo para vos

E5             C#5
Unos farolazos me encandilaron
  G#5 A5 B5
y me atraparon

E5   C#5      A5
Niña de cabellos Rojos
E5        C#5        A5
Niña niña me robaste el corazon
E5        C#5      A5
Niña niña de cabellos Rojos
E5        C#5       A5
Niña niña devolveme el corazon

G#5 A5 B5 E5
C#5 A5 E5 B5 x2
B5 Mute

E5        C#5         A5
Niña niña de cabellos Rojos
E5        C#5        A5
Niña niña me robaste el corazon
E5        C#5         A5
Niña niña de cabellos Rojos
E5        C#5       A5
Niña niña devolveme el corazon
E5        C#5         A5
Niña niña de cabellos Rojos
E5        C#5 B5 A5 G#5 A5 G#5 E
Niña niña devolveme el corazon


Espero este 100% correcto y que les guste mi aporte.
Saludos y Gracias.

Aguante 2 Minutos!!!!!
Добавлено: 31.05.2016
Другие материалы по этой песне:
  • Аккорды и текст

Страница создана 31.05.2016
http://primanota.ru/2-minutos/metal-marciano-rojo-chords.htm
Привет, Гость.
Предлагаем пройти революционный курс по гитаре.
Подарок от PrimaNota.Ru, забирай!