PrimaNota.ru - самый крупный в мире бесплатный архив песенных текстов, аккордов, табулатур и нот


2 Minutos - Felicidad - таба, видео

Регистрация Запомнить меня
Войти через:  Facebook Google Twitter Vk Yandex Mail.ru

2 Minutos - Felicidad - таба, видео

Печатать
Просмотров: 58
felicidad  *en vivio con los guaguarones S.A. 15 de junio del 
2004*


2 minutos


TRANSCRIBED BY RUDY GUZMAN


guzman_84@


!!!!24 de junio del 2004 en obregon sonora!!!!

chipotes: señores un aplauso antes que nada como sus rolas 
duran 2 minutos nos preguntabamos
          que tan dificil seria que se aventaran otra rolita?
   mosca: porque no amigo?
chipotes: ea ea amonos!!!
 alfredo: una sugerencia
   mosca: cuando volvamos de esta gira entramos a grabar nuestro
 8vo disco alla en buenos aires y el tema se llama 'felicidad' 
espero que les guste
         
e:--------------------------------------------------------|
B:--------------------------------------------------------|
G:--------------------------------------------------------|
D:-7-7-7-7-7-7-7-6-6-6-6-6-6-6--2-2-2-2-2-----------------|
A:-7-7-7-7-7-7-7-6-6-6-6-6-6-6--2-2-2-2-2--7-6-4----------|
E:-5-5-5-5-5-5-5-4-4-4-4-4-4-4--0-0-0-0-0--------7--5-4-2-|

e:--------------------------------------------------------|
B:--------------------------------------------------------|
G:--------------------------------------------------------|
D:-7-7-7-7-7-7-7-6-6-6-6-6-6-6--2-2-2-2-2-----------------|
A:-7-7-7-7-7-7-7-6-6-6-6-6-6-6--2-2-2-2-2--7-6-4----------|
E:-5-5-5-5-5-5-5-4-4-4-4-4-4-4--0-0-0-0-0--------7--5-4-2-|

e:--------------------------------------------------------|
B:--------------------------------------------------------|
G:--------------------------------------------------------|
D:-7-7-7-7-7-7-7-6-6-6-6-6-6-6--2-2-2-2-2-----------------|
A:-7-7-7-7-7-7-7-6-6-6-6-6-6-6--2-2-2-2-2--7-6-4----------|
E:-5-5-5-5-5-5-5-4-4-4-4-4-4-4--0-0-0-0-0--------7--5-4-2-|

e:-----------------------------------------------------------------|
B:-----------------------------------------------------------------|
G:-----------------------------------------------------------------|
D:-7-7-7-7-7-7-7-6-6-6-6-6-6-6--2-2-2-2-2-2-2-2-2-2--9-9-9-9-9-9-9-|
A:-7-7-7-7-7-7-7-6-6-6-6-6-6-6--2-2-2-2-2-2-2-2-2-2--7-7-7-7-7-7-7-|
E:-5-5-5-5-5-5-5-4-4-4-4-4-4-4--0-0-0-0-0-0-0-0-0-0----------------|


e:-------------------|
B:-------------------|
G:-------------------|
D:-6-6-6--2--2-2-2-2-| x 3
A:-6-6-6--2--2-2-2-2-|
E:-4-4-4--0--0-0-0-0-|

verse
e:-----------------------------------------------------------------------------------------|
B:-----------------------------------------------------------------------------------------|
G:--------------------4-4-4-4-4-4-4-4-------------------6-6-6-6-6-6-6--2-2-2-2-2--4-4-4-4-4|
D:-2-2-2-2-2-2-2-2-2--4-4-4-4-4-4-4-4--6-6-6-6-6-6-6-6--6-6-6-6-6-6-6--2-2-2-2-2--4-4-4-4-4|
A:-2-2-2-2-2-2-2-2-2--2-2-2-2-2-2-2-2--6-6-6-6-6-6-6-6--4-4-4-4-4-4-4--0-0-0-0-0--2-2-2-2-2|
E:-0-0-0-0-0-0-0-0-0-------------------4-4-4-4-4-4-4-4-------------------------------------|

:-----------------------------------------|
:-----------------------------------------|
:-8-9-8-----------------------------------|
:-------9/--------------------------------|
:-----------------------------------------|
:-----------------------------------------|

e:-----------------------------------------------------------------------------------------|
B:-----------------------------------------------------------------------------------------|
G:--------------------4-4-4-4-4-4-4-4-------------------6-6-6-6-6-6-6--2-2-2-2-2--4-4-4-4-4|
D:-2-2-2-2-2-2-2-2-2--4-4-4-4-4-4-4-4--6-6-6-6-6-6-6-6--6-6-6-6-6-6-6--2-2-2-2-2--4-4-4-4-4|
A:-2-2-2-2-2-2-2-2-2--2-2-2-2-2-2-2-2--6-6-6-6-6-6-6-6--4-4-4-4-4-4-4--0-0-0-0-0--2-2-2-2-2|
E:-0-0-0-0-0-0-0-0-0-------------------4-4-4-4-4-4-4-4-------------------------------------|

    feeeeeeeeeeliiiiiiiiiiicidad  felicidad
e:---------------------------------------------------|
B:---------------------------------------------------|
G:---------------------------------------------------|
D:-7-7-7-7-7-7-7-6-6-6-6-6-6-6--2-2-2-2-2-2-2-2-2-2--| x 4
A:-7-7-7-7-7-7-7-6-6-6-6-6-6-6--2-2-2-2-2-2-2-2-2-2--|
E:-5-5-5-5-5-5-5-4-4-4-4-4-4-4--0-0-0-0-0-0-0-0-0-0--|

e:-------------------|
B:-------------------|
G:-------------------|
D:-6-6-6--2--2-2-2-2-| x 4
A:-6-6-6--2--2-2-2-2-|
E:-4-4-4--0--0-0-0-0-|


verse
e:-----------------------------------------------------------------------------------------|
B:-----------------------------------------------------------------------------------------|
G:--------------------4-4-4-4-4-4-4-4-------------------6-6-6-6-6-6-6--2-2-2-2-2--4-4-4-4-4|
D:-2-2-2-2-2-2-2-2-2--4-4-4-4-4-4-4-4--6-6-6-6-6-6-6-6--6-6-6-6-6-6-6--2-2-2-2-2--4-4-4-4-4|
A:-2-2-2-2-2-2-2-2-2--2-2-2-2-2-2-2-2--6-6-6-6-6-6-6-6--4-4-4-4-4-4-4--0-0-0-0-0--2-2-2-2-2|
E:-0-0-0-0-0-0-0-0-0-------------------4-4-4-4-4-4-4-4-------------------------------------|

:-----------------------------------------|
:-----------------------------------------|
:-8-9-8-----------------------------------|
:-------9/--------------------------------|
:-----------------------------------------|
:-----------------------------------------|

e:-----------------------------------------------------------------------------------------|
B:-----------------------------------------------------------------------------------------|
G:--------------------4-4-4-4-4-4-4-4-------------------6-6-6-6-6-6-6--2-2-2-2-2--4-4-4-4-4|
D:-2-2-2-2-2-2-2-2-2--4-4-4-4-4-4-4-4--6-6-6-6-6-6-6-6--6-6-6-6-6-6-6--2-2-2-2-2--4-4-4-4-4|
A:-2-2-2-2-2-2-2-2-2--2-2-2-2-2-2-2-2--6-6-6-6-6-6-6-6--4-4-4-4-4-4-4--0-0-0-0-0--2-2-2-2-2|
E:-0-0-0-0-0-0-0-0-0-------------------4-4-4-4-4-4-4-4-------------------------------------|


    feeeeeeeeeeliiiiiiiiiiicidad  felicidad
e:---------------------------------------------------|
B:---------------------------------------------------|
G:---------------------------------------------------|
D:-7-7-7-7-7-7-7-6-6-6-6-6-6-6--2-2-2-2-2-2-2-2-2-2--| x 4
A:-7-7-7-7-7-7-7-6-6-6-6-6-6-6--2-2-2-2-2-2-2-2-2-2--|
E:-5-5-5-5-5-5-5-4-4-4-4-4-4-4--0-0-0-0-0-0-0-0-0-0--|

e:-------------------|
B:-------------------|
G:-------------------|
D:-6-6-6--2--2-2-2-2-| x 4
A:-6-6-6--2--2-2-2-2-|
E:-4-4-4--0--0-0-0-0-|

    feeeeeeeeeeliiiiiiiiiiicidad  felicidad
e:---------------------------------------------------|
B:---------------------------------------------------|
G:---------------------------------------------------|
D:-7-7-7-7-7-7-7-6-6-6-6-6-6-6--2-2-2-2-2-2-2-2-2-2--| x 4
A:-7-7-7-7-7-7-7-6-6-6-6-6-6-6--2-2-2-2-2-2-2-2-2-2--|
E:-5-5-5-5-5-5-5-4-4-4-4-4-4-4--0-0-0-0-0-0-0-0-0-0--|

e:-------------------|
B:-------------------|
G:-------------------|
D:-6-6-6--2--2-2-2-2-| x 4
A:-6-6-6--2--2-2-2-2-|
E:-4-4-4--0--0-0-0-0-|

felicidad amigos

nos vemos en usa tour


primicia perros!!!
no me lo nieguen!!!
quiero oir la rola de mi novia es un vampiro y el cover de los 
misfits que se aventaron en hillo el año pasado *2003*

dias perrinos me hacen cocinar enanos a clientes de tacos

hillo son mex

herson
17/06/04

Добавлено: 02.03.2016
Другие материалы по этой песне:
  • Аккорды и текст

Страница создана 02.03.2016
http://primanota.ru/2-minutos/felicidad-chords.htm
Привет, Гость.
Предлагаем пройти революционный курс по гитаре.
Подарок от PrimaNota.Ru, забирай!