PrimaNota.ru - самый крупный в мире бесплатный архив песенных текстов, аккордов, табулатур и нот


2 Minutos - Fantasma - таба, видео

Регистрация Запомнить меня
Войти через:  Facebook Google Twitter Vk Yandex Mail.ru

2 Minutos - Fantasma - таба, видео

Печатать
Просмотров: 49
v= vibrar
e= estirar
El E se toca:  --2---- 4
               --2---- 5
               --0---- 6

Riff sobre: A E F# D A F# B D  X2

--------------------------------------------------------   1
--------------2-----------5v---5-5-5-7-5-3-2------------   2
-6-4-2--6-4-2---6-4-2-4-6------------------4-2-4-2------   3


-----------------------------------------------------
-------------2-2-------------2-2---------------5-5v--
-6-6-4-4-2-2-----6-6-4-4-2-2-----6-6-4-4-2-4-6-------


------------------------- 1
-5-5-5-7-5-3-2----------- 2
---------------4-2-4-2--- 3


    A           E    F#            D
Uu tengo un fantasma en mi habitacion
       A    F#     B     D
y no puedo sacarlo de aqui
 A         E       F#          D
muchos recuerdos vienen hacia mi
       A    F#   B     D
y no puedo casi ya dormir
 A        E           F#          D
hubo un tiempo en que ella fue feliz
          A           F#    B       D
hubo un tiempo en que ella vivio aqui

F#    D        A
Y no se que paso
F#    D        A
Y no se que paso uo
F#    D        A
Y no se que paso
F#    D        A  E
Y no se que paso


---------------------------------------------------------   1
-------2-------2-----------5v---5-5-5-7-5-3-2------------   2
-6-4-2---6-4-2---6-4-2-4-6------------------4-2-4-2------   3


---------------------------------------------------------   1
---------------------------------------------------------   2
-6-7-6--6-7-6--6-7-6--6-7-6--6-7-6--6-7-6--6-7-6--6-7-6--   3

----------------------------------------------
----------------------------------------------
-6-7-6-9--6-7-6-9--6-7-6-9--6-7-6-9--6-7-6-9--


----------------------------------  1
7-5--9-10-10--12-10-10--10-12e----  2
----------------------------------  3


 A           E    F#            D
tengo un fantasma en mi habitacion
       A    F#      B    D
y no puedo sacarlo de aqui
 A         E       F#          D
muchos recuerdos vienen hacia mi
       A    F#   B     D
y no puedo casi ya dormir
 A        E           F#         D
hubo un tiempo en que el vivio aqui
          A           F#     B    D
hubo un tiempo en que ella fue feliz


F#    D        A
Y no se que paso
F#    D        A
Y no se que paso uu
F#    D        A
Y no se que paso uo
F#    D        A  E
Y no se que paso


 A           E    F#            D
tengo un fantasma en mi habitacion
       A    F#      B    D
y no puedo sacarlo de aqui


En algunas partes se toca con Palm Mute, escuchar bien el tema para
sacar el ritmo y esas boludeses.
Saludos gente, y larga vida al Punk Rock!!
Добавлено: 31.05.2016
Другие материалы по этой песне:
  • Аккорды и текст

Страница создана 31.05.2016
http://primanota.ru/2-minutos/fantasma-chords.htm
Привет, Гость.
Предлагаем пройти революционный курс по гитаре.
Подарок от PrimaNota.Ru, забирай!