PrimaNota.ru - самый крупный в мире бесплатный архив песенных текстов, аккордов, табулатур и нот


2 Minutos - Enamorado De Vos - бас-таба, видео

Регистрация Запомнить меня
Войти через:  Facebook Google Twitter Vk Yandex Mail.ru

2 Minutos - Enamorado De Vos - бас-таба, видео

Печатать
Просмотров: 76
Es interesante oir el bajo de esta canción yo se los recomiendo; practiquenlo es sencillo

INTRO:
1/--------------------------------------------------------------------
2/--------------------------------------------------------------------
3/----------2-(x5)-----------5-7-5-7-5--------------------------------
4/--3-(x5)---------5-(x5)-----------------7--5--3---------------------

Puente:

1/--------------------------------------------------------------------
2/--------------------------------------------------------------------
3/-----------2-(x2)----------5-(x5)-----------------------------------
4/---3-(x5)---------5-(x5)--------------------------------------------

Esribillo:
1/--------------------------------------------------------------------
2/--------------------------------------------------------------------
3/----7(X5)--3-(x5)--5-(x10)------------------------------------------
4/--------------------------------------------------------------------

cualquier duda escribanme
Добавлено: 24.03.2016
Другие материалы по этой песне:
  • Аккорды и текст

Страница создана 24.03.2016
http://primanota.ru/2-minutos/enamorado-de-vos-chords.htm
Привет, Гость.
Предлагаем пройти революционный курс по гитаре.
Подарок от PrimaNota.Ru, забирай!