PrimaNota.ru - самый крупный в мире бесплатный архив песенных текстов, аккордов, табулатур и нот


2 Minutos - El Bar - бас-таба, видео

Регистрация Запомнить меня
Войти через:  Facebook Google Twitter Vk Yandex Mail.ru

2 Minutos - El Bar - бас-таба, видео

Печатать
Просмотров: 89
intro:
1/-----------------------------------------------------------------------------------------------
2/-----------------------------------------------------------------------------------------------
3/------------5-(x2)-4-(x2)-----------5-(x2)-4-(x2)--2-(x-5)------------5-(x2)--4-(x2)--5-(x2)---
4/--5-(x10)------------------5-(x10)----------------------------5-(-x3)--------------------------

1/--------------------------------------------------------------------
2/--------------------------------------------------------------------
3/--7-(x3)------------------------------------------------------------
4/-----------5--------------------------------------------------------

Puente:

1/--------------------------------------------------------------------
2/--------------------------------------------------------------------
3/-----------2-(x5)-5-(x5)--7-(x5)------------------------------------
4/---5-(x5)---------------------------5-(x5)--------------------------


Estribillo
(los tiempos no los se bien, pero alguien que conoce 2 minutos, 
seguro que los va a deducir por sí mismo, yo te pongo los tonos)

1/--------------------------------------------------------------------
2/--------------------------------------------------------------------
3/-----5--------5-----5--------5-5--7---------------------------------
4/-2-----5--2-----2-----5-2-----------5-------------------------------
Добавлено: 24.03.2016
Другие материалы по этой песне:
  • Аккорды и текст

Страница создана 24.03.2016
http://primanota.ru/2-minutos/el-bar-chords.htm
Привет, Гость.
Предлагаем пройти революционный курс по гитаре.
Подарок от PrimaNota.Ru, забирай!