PrimaNota.ru - самый крупный в мире бесплатный архив песенных текстов, аккордов, табулатур и нот


2 Minutos - Cacería - таба, видео

Регистрация Запомнить меня
Войти через:  Facebook Google Twitter Vk Yandex Mail.ru

2 Minutos - Cacería - таба, видео

Печатать
Просмотров: 32
INTRO: D5     D5 B5 E5 A5 x4

 D5       B5   E5        A5
No queda nada mas que decir
D5             B5       E5         A5
ya cerro el telon para vos y para mi

        F#5                            A5
solo tratar (solo tratar)    de ser feliz
        F#5                       A5
solo cazar (solo cazar)     y seguir
   D5        B5            E5
y hoy puede ser esa noche noche
     A5     D5
que vos queres...


SOLO:

e|--------------------------------------------------------------------|
B|--------------------------------------------------------------------|
G|--7-7-6-6-7-7-6-6-7-7-6-6-4-4-2-2--7-7-6-6-7-7-6-6-7-7-6-6-4-4--2-2-|
D|--------------------------------------------------------------------|x2
A|--------------------------------------------------------------------|
E|--------------------------------------------------------------------|


e|--------------------------------------------------------------------|
B|--------------------------------------------------------------------|
G|--/14--14-14-14-14------------/14--14-14-14-14----------------------|
D|-------------------12-14~-12-------------------12-14--14-14-12------|
A|--------------------------------------------------------------------|
E|--------------------------------------------------------------------|


e|------------------------------------------|
B|------------------------------------------|
G|------------------------------------------|(Esta parte con Palm muted)
D|--0-0-2-2-4-4-5-5-7-7-9-9-11-11-12-12-----|x2
A|------------------------------------------|
E|------------------------------------------|


        F#5                            A5
Solo tratar (solo tratar)    de ser feliz
        F#5                       A5
solo cazar  (solo cazar)    y seguir
   D5        B5            E5
y hoy puede ser esa noche noche
     A5     D5
que vos queres
 D5      B5       E5         A5
Solo placer para vos y para mi...
         D5
y  para [ch]E[/ch].
Добавлено: 01.04.2016
Другие материалы по этой песне:
  • Аккорды и текст

Страница создана 01.04.2016
http://primanota.ru/2-minutos/caceria-chords.htm
Привет, Гость.
Предлагаем пройти революционный курс по гитаре.
Подарок от PrimaNota.Ru, забирай!