PrimaNota.ru - самый крупный в мире бесплатный архив песенных текстов, аккордов, табулатур и нот


2 Minutos - 2 Minutos - таба, видео

Регистрация Запомнить меня
Войти через:  Facebook Google Twitter Vk Yandex Mail.ru

2 Minutos - 2 Minutos - таба, видео

Печатать
Просмотров: 84
2 minutos


dos minutos


TRANSCRIBED BY RUDY GUZMAN


guzman_84@hotmail.com




"No dale dale, ahora si eh, metal puro"

   gt1                                            
e:--------------------------------|
B:--------------------------------|
G:--------------------------------|
D:--------------------------------|
A:-2-2--2--9-9--9--7-7--7--2-2--2-|
E:-0-0--0--7-7--7--5-5--5--0-0--0-|

 solo 1
  gt2
e:-------------------------------------------------------|
B:-----17-----17-----17-----17-----17-----17-------------|
G:-19b----19b----19b----19b----19b----19b----19b-19b~~~~-|
D:-------------------------------------------------------|
A:-------------------------------------------------------|
E:-------------------------------------------------------|

e:-------------------------------------------------------------------------|
B:-----17-----17-----17-----17-----17-17b-17b-17b~~~~-------20bf-20b-20b~~-|
G:-19b----19b----19b----19b----19b----19b-19b-19b~~~~-19-16----------------|
D:-------------------------------------------------------------------------|
A:-------------------------------------------------------------------------|
E:-------------------------------------------------------------------------|

e:-----------------------------18b-18b-18b-18b-18b-18b-18b-18b-18b-18bf~~~~-|
B:-------20bf-20b-20b~~-----------------------------------------------------|
G:-19-16----------------19-16-----------------------------------------------|
D:--------------------------------------------------------------------------|
A:--------------------------------------------------------------------------|
E:--------------------------------------------------------------------------|

  2 minutos punkeando para vos... 
e:--------------------------------|
B:--------------------------------|
G:--------------------------------|
D:--------------------------------|
A:-2-2--2--9-9--9--7-7--7--2-2--2-|
E:-0-0--0--7-7--7--5-5--5--0-0--0-| 


  solo 2
e:-------------------------------------------------------------------------------|
B:-20p17----20p17----20p17----20p17----20p17----20p17----20p17----20p17----20p17-|
G:-------19-------19-------19-------19-------19-------19-------19-------19-------|
D:-------------------------------------------------------------------------------|
A:-------------------------------------------------------------------------------|
E:-------------------------------------------------------------------------------|

e:----------------------------------22bf--20-19----------19-------------|
B:-20bf-20-20b-20b-20-20b-20bf~~~~--------------22-20-22----22----------|
G:------19-----------------------------------------------------21b~~~~~-|
D:----------------------------------------------------------------------|
A:----------------------------------------------------------------------|
E:----------------------------------------------------------------------|


***gt1 behind solo 2***
e:--------------------------------|
B:--------------------------------|
G:--------------------------------|
D:--------------------------------|
A:-2-2--2--9-9--9--7-7--7--9-9--9-|
E:-0-0--0--7-7--7--5-5--5--7-7--7-| 



  2 minutos punkeando para vos...
  gt1 
e:--------------------------------|
B:--------------------------------|
G:--------------------------------|
D:--------------------------------|
A:-2-2--2--9-9--9--7-7--7--2-2--2-|
E:-0-0--0--7-7--7--5-5--5--0-0--0-|
  gt2
e:--------------------------------------|
B:--------------------------------------|
G:------------------------------14b~~~~-|
D:--------------------------------------|
A:-2-2--2--9-9--9--7-7--7--2------------|
E:-0-0--0--7-7--7--5-5--5--0------------|


 solo 3
e:------------------------------------------------------------------------------|
B:------------------------------------------------------------------------------|
G:-14b-14b-14b-14b-14b-14b-14bf-14bf-14bf~~~--14b-14b-14b-14b-14bf-14bf-14bf~~~-|
D:------------------------------------------------------------------------------|
A:------------------------------------------------------------------------------|
E:------------------------------------------------------------------------------|

e:-12bf--12b-12b-12b-12b-12bf~~~---15bf--15b-15b-15b-15b-15b-15b-15bf-----------|
B:-15bf--15b-15b-15b-15b-15bf~~~------------------------------------------------|
G:------------------------------------------------------------------------------|
D:------------------------------------------------------------------------------|
A:------------------------------------------------------------------------------|
E:------------------------------------------------------------------------------|

***gt1 behind solo 3***
e:--------------------------------|
B:--------------------------------|
G:--------------------------------|
D:--------------------------------|
A:-2-2--2--9-9--9--7-7--7--9-9--9-|
E:-0-0--0--7-7--7--5-5--5--7-7--7-| 


  2 minutos punkeando para vos... 
  gt1
e:--------------------------------|
B:--------------------------------|
G:--------------------------------|
D:--------------------------------|
A:-2-2--2--9-9--9--7-7--7--2-2--2-|
E:-0-0--0--7-7--7--5-5--5--0-0--0-|
  gt2
e:--------------------------------|
B:--------------------------------|
G:--------------------------------|
D:--------------------------------|
A:-2-2--2--9-9--9--7-7--7--2------|
E:-0-0--0--7-7--7--5-5--5--0--12\-|



e:--------------------------------|
B:--------------------------------|
G:--------------------------------|
D:--------------------------------|
A:-2-2--2--9-9--9--7-7--7--2------|
E:-0-0--0--7-7--7--5-5--5--0------|

e:------------------------------------------------------------|
B:------------------------------------------------------------|
G:-8b~~~~~~~~~~~~--8bf----------------------------------------|
D:------------------------------------------------------------|
A:------------------------------------------------------------|
E:------------------------------------------------------------|


          lyrics
2 Minutos punkeando para vos,
esta noche, con huevo y corazón.
Solo te pido un puto favor
Respeto al de al lado y diversión.

2 Minutos punkeando para vos,
esta noche, con huevo y corazón.
Solo te pido un puto favor
Respeto al de al lado y diversión.

2 Minutos punkeando para vos
2 Minutos punkeando para vos
2 Minutos punkeando para vos
2 Minutos punkeando para vos



hillo son mex

7/08/11
Добавлено: 31.05.2016
Другие материалы по этой песне:
  • Аккорды и текст

Страница создана 31.05.2016
http://primanota.ru/2-minutos/2-minutos-chords.htm
Привет, Гость.
Предлагаем пройти революционный курс по гитаре.
Подарок от PrimaNota.Ru, забирай!