PrimaNota.ru - самый крупный в мире бесплатный архив песенных текстов, аккордов, табулатур и нот


1St Vows - Kimono - бас-таба, видео

Регистрация Запомнить меня
Войти через:  Facebook Google Twitter Vk Yandex Mail.ru

1St Vows - Kimono - бас-таба, видео

Печатать
Просмотров: 65
-------------------------------------------------------------------------------
                             Kimono - 1st Vows
-------------------------------------------------------------------------------
Tabbed by: bassplayer27 
E-mail: 

Tuning: E
Intro: 0:12

G|--------------------------|------------------|-----------------------------|
D|--7---------3-3/5---------|--7-----5--3------|--7----5--3------------------|
A|----5h7----------55-3h5\--|---5h7-------5h7\-|----57-------3/5-55-5x-------|
E|-5------33-1--------------|-5--------1-------|-5-------1-------------------|

G|---------------------------------------------------------------------------|
D|--7----5--3----------------------------------------------------------------|
A|----5h7--------------------------------------------------------------------|
E|-5-------1-----------------------------------------------------------------|

pre Chorus
G|---------------------------------------------------------------------------|
D|---------------------------------------------------------------------------|
A|-3h53-3h53-----3h53-3h53---------------------------------------------------|
E|-----------1-1-------------1~----------------------------------------------|

Chorus 0:52
G|---------------------------------------------------------------------------|
D|-------------------------------5h7-5h7-------------------------------------|
A|-------------5~---------------5--------------------------------------------|
E|-5~--3~--1~------3-5~--3~--1~----------------------------------------------|

G|---------------------------------------------------------------------------|
D|---7-5--------------------------5h7-5--------------------------------------|
A|--------------5~--------------5--------------------------------------------|
E|-5~----3~--1~----3-5~--3~--1~----------------------------------------------|

Verse
Bass comes in at 1:22

G|----------------|------------------|---------------------------------------|
D|---3-x3h5-------|--7----5--3-------|--7---5---7\---3--3/5------------------|
A|---------55-3h5-|----5h7-------5h7-|---5h7----------------55-5-------------|
E|--1-------------|-5-------1--------|-5------------1--1---------------------|
                     Pre Chorus 1:45
G|-----------------|---------------------------------------------------------|
D|--7----------3---|---------------------------------------------------------|
A|---5h7-----------|-3h53-3h53-----------------------------------------------|
E|-5-----33-1x1----|----------1~---------------------------------------------|

Chorus 1:51
G|---------------------------------------------------------------------------|
D|-------------------------------5h7-5h7-------------------------------------|
A|-------------5~---------------5--------------------------------------------|
E|-5~--3~--1~------3-5~--3~--1~----------------------------------------------|

G|---------------------------------------------------------------------------|
D|---7-5---------------------------------------------------------------------|
A|--------------5~--------------5--------------------------------------------|
E|-5~----3~--1~----3-5~--3~--1~----------------------------------------------|

Breakdown: (At the end, you can let the 1 ring or play 15 on the D string)

G|------------5h7-9-5-7------------------------------------------------------|
D|---------35-----------7-----------------3(x8)-----------------------------|
A|-5~-3~-53---------------------2-3-5----------------------------------------|
E|-----------------------1-3--5-------1~---------/\--------------------------|

Chorus 1:51
G|---------------------------------------------------------------------------|
D|-------------------------------5h7-5h7-------------------------------------|
A|-------------5~---------------5--------------------------------------------|
E|-5~--3~--1~------3-5~--3~--1~----------------------------------------------|

G|---------------------------------------------------------------------------|
D|---7-5---------------------------------------------------------------------|
A|--------------5~--------------5--------------------------------------------|
E|-5~----3~--1~----3-5~--3~--1~----------------------------------------------|



| /  slide up
| \  slide down
| h  hammer-on
| p  pull-off
| ~  vibrato
| +  harmonic
| x  Mute note
===============================================================================
Добавлено: 24.06.2016
Другие материалы по этой песне:
  • Аккорды и текст

Страница создана 24.06.2016
http://primanota.ru/1st-vows/kimono-chords.htm
Привет, Гость.
Предлагаем пройти революционный курс по гитаре.
Подарок от PrimaNota.Ru, забирай!